  0
SECTION
  2
HEADER
  9
$ACADVER
  1
AC1018
  9
$ACADMAINTVER
 70
     0
  9
$DWGCODEPAGE
  3
ANSI_1252
  9
$INSBASE
 10
0.0
 20
0.0
 30
0.0
  9
$EXTMIN
 10
-0.5
 20
-0.5
 30
-0.5
  9
$EXTMAX
 10
5.0
 20
5.0
 30
5.0
  9
$LIMMIN
 10
-0.5
 20
-0.5
  9
$LIMMAX
 10
5.0
 20
5.0
  9
$ORTHOMODE
 70
     0
  9
$REGENMODE
 70
     1
  9
$FILLMODE
 70
     1
  9
$QTEXTMODE
 70
     0
  9
$MIRRTEXT
 70
     1
  9
$LTSCALE
 40
1.0
  9
$ATTMODE
 70
     1
  9
$TEXTSIZE
 40
0.2
  9
$TRACEWID
 40
0.05
  9
$TEXTSTYLE
  7
Standard
  9
$CLAYER
  8
0
  9
$CELTYPE
  6
ByLayer
  9
$CECOLOR
 62
   256
  9
$CELTSCALE
 40
1.0
  9
$DISPSILH
 70
     0
  9
$DIMSCALE
 40
1.0
  9
$DIMASZ
 40
0.18
  9
$DIMEXO
 40
0.0625
  9
$DIMDLI
 40
0.38
  9
$DIMRND
 40
0.0
  9
$DIMDLE
 40
0.0
  9
$DIMEXE
 40
0.18
  9
$DIMTP
 40
0.0
  9
$DIMTM
 40
0.0
  9
$DIMTXT
 40
0.18
  9
$DIMCEN
 40
0.09
  9
$DIMTSZ
 40
0.0
  9
$DIMTOL
 70
     0
  9
$DIMLIM
 70
     0
  9
$DIMTIH
 70
     1
  9
$DIMTOH
 70
     1
  9
$DIMSE1
 70
     0
  9
$DIMSE2
 70
     0
  9
$DIMTAD
 70
     0
  9
$DIMZIN
 70
     0
  9
$DIMBLK
  1

  9
$DIMASO
 70
     1
  9
$DIMSHO
 70
     1
  9
$DIMPOST
  1

  9
$DIMAPOST
  1

  9
$DIMALT
 70
     0
  9
$DIMALTD
 70
     2
  9
$DIMALTF
 40
25.4
  9
$DIMLFAC
 40
1.0
  9
$DIMTOFL
 70
     0
  9
$DIMTVP
 40
0.0
  9
$DIMTIX
 70
     0
  9
$DIMSOXD
 70
     0
  9
$DIMSAH
 70
     0
  9
$DIMBLK1
  1

  9
$DIMBLK2
  1

  9
$DIMSTYLE
  2
Standard
  9
$DIMCLRD
 70
     0
  9
$DIMCLRE
 70
     0
  9
$DIMCLRT
 70
     0
  9
$DIMTFAC
 40
1.0
  9
$DIMGAP
 40
0.09
  9
$DIMJUST
 70
     0
  9
$DIMSD1
 70
     0
  9
$DIMSD2
 70
     0
  9
$DIMTOLJ
 70
     1
  9
$DIMTZIN
 70
     0
  9
$DIMALTZ
 70
     0
  9
$DIMALTTZ
 70
     0
  9
$DIMUPT
 70
     0
  9
$DIMDEC
 70
     4
  9
$DIMTDEC
 70
     4
  9
$DIMALTU
 70
     2
  9
$DIMALTTD
 70
     2
  9
$DIMTXSTY
  7
Standard
  9
$DIMAUNIT
 70
     0
  9
$DIMADEC
 70
     0
  9
$DIMALTRND
 40
0.0
  9
$DIMAZIN
 70
     0
  9
$DIMDSEP
 70
    46
  9
$DIMATFIT
 70
     3
  9
$DIMFRAC
 70
     0
  9
$DIMLDRBLK
  1

  9
$DIMLUNIT
 70
     2
  9
$DIMLWD
 70
    -2
  9
$DIMLWE
 70
    -2
  9
$DIMTMOVE
 70
     0
  9
$LUNITS
 70
     2
  9
$LUPREC
 70
     4
  9
$SKETCHINC
 40
0.1
  9
$FILLETRAD
 40
0.5
  9
$AUNITS
 70
     0
  9
$AUPREC
 70
     0
  9
$MENU
  1
.
  9
$ELEVATION
 40
0.0
  9
$PELEVATION
 40
0.0
  9
$THICKNESS
 40
0.0
  9
$LIMCHECK
 70
     0
  9
$CHAMFERA
 40
0.0
  9
$CHAMFERB
 40
0.0
  9
$CHAMFERC
 40
0.0
  9
$CHAMFERD
 40
0.0
  9
$SKPOLY
 70
     0
  9
$TDCREATE
 40
2458075.510859815
  9
$TDUCREATE
 40
2458075.469193148
  9
$TDUPDATE
 40
2458075.510860278
  9
$TDUUPDATE
 40
2458075.469193611
  9
$TDINDWG
 40
0.0000000116
  9
$TDUSRTIMER
 40
0.0000000116
  9
$USRTIMER
 70
     1
  9
$ANGBASE
 50
0.0
  9
$ANGDIR
 70
     0
  9
$PDMODE
 70
     0
  9
$PDSIZE
 40
0.0
  9
$PLINEWID
 40
0.0
  9
$SPLFRAME
 70
     0
  9
$SPLINETYPE
 70
     6
  9
$SPLINESEGS
 70
     8
  9
$HANDSEED
  5
178
  9
$SURFTAB1
 70
     6
  9
$SURFTAB2
 70
     6
  9
$SURFTYPE
 70
     6
  9
$SURFU
 70
     6
  9
$SURFV
 70
     6
  9
$UCSBASE
  2

  9
$UCSNAME
  2

  9
$UCSORG
 10
0.0
 20
0.0
 30
0.0
  9
$UCSXDIR
 10
1.0
 20
0.0
 30
0.0
  9
$UCSYDIR
 10
0.0
 20
1.0
 30
0.0
  9
$UCSORTHOREF
  2

  9
$UCSORTHOVIEW
 70
     0
  9
$UCSORGTOP
 10
0.0
 20
0.0
 30
0.0
  9
$UCSORGBOTTOM
 10
0.0
 20
0.0
 30
0.0
  9
$UCSORGLEFT
 10
0.0
 20
0.0
 30
0.0
  9
$UCSORGRIGHT
 10
0.0
 20
0.0
 30
0.0
  9
$UCSORGFRONT
 10
0.0
 20
0.0
 30
0.0
  9
$UCSORGBACK
 10
0.0
 20
0.0
 30
0.0
  9
$PUCSBASE
  2

  9
$PUCSNAME
  2

  9
$PUCSORG
 10
0.0
 20
0.0
 30
0.0
  9
$PUCSXDIR
 10
1.0
 20
0.0
 30
0.0
  9
$PUCSYDIR
 10
0.0
 20
1.0
 30
0.0
  9
$PUCSORTHOREF
  2

  9
$PUCSORTHOVIEW
 70
     0
  9
$PUCSORGTOP
 10
0.0
 20
0.0
 30
0.0
  9
$PUCSORGBOTTOM
 10
0.0
 20
0.0
 30
0.0
  9
$PUCSORGLEFT
 10
0.0
 20
0.0
 30
0.0
  9
$PUCSORGRIGHT
 10
0.0
 20
0.0
 30
0.0
  9
$PUCSORGFRONT
 10
0.0
 20
0.0
 30
0.0
  9
$PUCSORGBACK
 10
0.0
 20
0.0
 30
0.0
  9
$USERI1
 70
     0
  9
$USERI2
 70
     0
  9
$USERI3
 70
     0
  9
$USERI4
 70
     0
  9
$USERI5
 70
     0
  9
$USERR1
 40
0.0
  9
$USERR2
 40
0.0
  9
$USERR3
 40
0.0
  9
$USERR4
 40
0.0
  9
$USERR5
 40
0.0
  9
$WORLDVIEW
 70
     1
  9
$SHADEDGE
 70
     3
  9
$SHADEDIF
 70
    70
  9
$TILEMODE
 70
     1
  9
$MAXACTVP
 70
    64
  9
$PINSBASE
 10
0.0
 20
0.0
 30
0.0
  9
$PLIMCHECK
 70
     0
  9
$PEXTMIN
 10
-0.5
 20
-0.5
 30
-0.5
  9
$PEXTMAX
 10
5.0
 20
5.0
 30
5.0
  9
$PLIMMIN
 10
-0.5
 20
-0.5
  9
$PLIMMAX
 10
5.0
 20
5.0
  9
$UNITMODE
 70
     0
  9
$VISRETAIN
 70
     1
  9
$PLINEGEN
 70
     0
  9
$PSLTSCALE
 70
     1
  9
$TREEDEPTH
 70
  3020
  9
$CMLSTYLE
  2
Standard
  9
$CMLJUST
 70
     0
  9
$CMLSCALE
 40
1.0
  9
$PROXYGRAPHICS
 70
     1
  9
$MEASUREMENT
 70
     1
  9
$CELWEIGHT
370
    18
  9
$ENDCAPS
280
     0
  9
$JOINSTYLE
280
     0
  9
$LWDISPLAY
290
     1
  9
$INSUNITS
 70
     4
  9
$HYPERLINKBASE
  1

  9
$STYLESHEET
  1

  9
$XEDIT
290
     1
  9
$CEPSNTYPE
380
     0
  9
$PSTYLEMODE
290
     1
  9
$FINGERPRINTGUID
  2
{ED7F0025-7F13-4DD7-8108-7114E090997D}
  9
$VERSIONGUID
  2
{FAEB1C32-E019-11D5-929B-00C0DF256EC4}
  9
$EXTNAMES
290
     1
  9
$PSVPSCALE
 40
0.0
  9
$OLESTARTUP
290
     0
  9
$SORTENTS
280
   127
  9
$INDEXCTL
280
     0
  9
$HIDETEXT
280
     1
  9
$XCLIPFRAME
290
     0
  9
$HALOGAP
280
     0
  9
$OBSCOLOR
 70
   257
  9
$OBSLTYPE
280
     0
  9
$INTERSECTIONDISPLAY
280
     0
  9
$INTERSECTIONCOLOR
 70
   257
  9
$DIMASSOC
280
     2
  9
$PROJECTNAME
  1

  0
ENDSEC
  0
SECTION
  2
CLASSES
  0
CLASS
  1
ACDBDICTIONARYWDFLT
  2
AcDbDictionaryWithDefault
  3
ObjectDBX Classes
 90
        0
 91
        4
280
     0
281
     0
  0
CLASS
  1
VISUALSTYLE
  2
AcDbVisualStyle
  3
ObjectDBX Classes
 90
     4095
 91
        4
280
     0
281
     0
  0
CLASS
  1
MATERIAL
  2
AcDbMaterial
  3
ObjectDBX Classes
 90
     1153
 91
        4
280
     0
281
     0
  0
CLASS
  1
SCALE
  2
AcDbScale
  3
ObjectDBX Classes
 90
     1153
 91
        4
280
     0
281
     0
  0
CLASS
  1
TABLESTYLE
  2
AcDbTableStyle
  3
ObjectDBX Classes
 90
     4095
 91
        4
280
     0
281
     0
  0
CLASS
  1
MLEADERSTYLE
  2
AcDbMLeaderStyle
  3
ACDB_MLEADERSTYLE_CLASS
 90
     4095
 91
        4
280
     0
281
     0
  0
CLASS
  1
SUN
  2
AcDbSun
  3
SCENEOE
 90
     1153
 91
        4
280
     0
281
     0
  0
CLASS
  1
DICTIONARYVAR
  2
AcDbDictionaryVar
  3
ObjectDBX Classes
 90
        0
 91
        4
280
     0
281
     0
  0
CLASS
  1
CELLSTYLEMAP
  2
AcDbCellStyleMap
  3
ObjectDBX Classes
 90
     1152
 91
        4
280
     0
281
     0
  0
ENDSEC
  0
SECTION
  2
TABLES
  0
TABLE
  2
VPORT
  5
8
102
{ACAD_XDICTIONARY
360
131
102
}
330
0
100
AcDbSymbolTable
 70
    16
  0
VPORT
  5
29
330
8
100
AcDbSymbolTableRecord
100
AcDbViewportTableRecord
  2
*Active
 70
     0
 10
0.0
 20
0.0
 11
1.0
 21
1.0
 12
186.588541
 22
145.325628
 13
0.0
 23
0.0
 14
0.5
 24
0.5
 15
0.5
 25
0.5
 16
0.0
 26
0.0
 36
1.0
 17
0.0
 27
0.0
 37
0.0
 40
254.0
 41
0.069908
 42
50.0
 43
425.232964
 44
-425.232964
 50
0.0
 51
0.0
 71
     0
 72
   100
 73
     1
 74
     3
 75
     0
 76
     0
 77
     0
 78
     0
281
     0
 65
     1
110
0.0
120
0.0
130
0.0
111
1.0
121
0.0
131
0.0
112
0.0
122
1.0
132
0.0
 79
     0
146
0.0
  0
VPORT
  5
122
330
8
100
AcDbSymbolTableRecord
100
AcDbViewportTableRecord
  2
L1
 70
     0
 10
0.0
 20
0.0
 11
1.0
 21
1.0
 12
186.588541
 22
145.325628
 13
0.0
 23
0.0
 14
0.5
 24
0.5
 15
0.5
 25
0.5
 16
0.0
 26
0.0
 36
1.0
 17
0.0
 27
0.0
 37
0.0
 40
254.0
 41
0.069908
 42
50.0
 43
425.232964
 44
-425.232964
 50
0.0
 51
0.0
 71
     0
 72
   100
 73
     1
 74
     3
 75
     0
 76
     0
 77
     0
 78
     0
281
     0
 65
     1
110
0.0
120
0.0
130
0.0
111
1.0
121
0.0
131
0.0
112
0.0
122
1.0
132
0.0
 79
     0
146
0.0
  0
VPORT
  5
123
330
8
100
AcDbSymbolTableRecord
100
AcDbViewportTableRecord
  2
L2
 70
     0
 10
0.0
 20
0.0
 11
0.5
 21
1.0
 12
0.0
 22
0.0
 13
0.0
 23
0.0
 14
0.5
 24
0.5
 15
0.5
 25
0.5
 16
0.0
 26
-1.0
 36
0.0
 17
0.0
 27
0.0
 37
0.0
 40
1500.38241
 41
0.011835
 42
50.0
 43
770.104354
 44
-770.104354
 50
0.0
 51
0.0
 71
     0
 72
   100
 73
     1
 74
     3
 75
     0
 76
     0
 77
     0
 78
     0
281
     0
 65
     1
110
0.0
120
0.0
130
0.0
111
1.0
121
0.0
131
0.0
112
0.0
122
1.0
132
0.0
 79
     0
146
0.0
  0
VPORT
  5
124
330
8
100
AcDbSymbolTableRecord
100
AcDbViewportTableRecord
  2
L2
 70
     0
 10
0.5
 20
0.0
 11
1.0
 21
1.0
 12
0.0
 22
0.0
 13
0.0
 23
0.0
 14
0.5
 24
0.5
 15
0.5
 25
0.5
 16
1.0
 26
0.0
 36
0.0
 17
0.0
 27
0.0
 37
0.0
 40
1500.38241
 41
0.011835
 42
50.0
 43
760.865195
 44
-760.865195
 50
0.0
 51
0.0
 71
     0
 72
   100
 73
     1
 74
     3
 75
     0
 76
     0
 77
     0
 78
     0
281
     0
 65
     1
110
0.0
120
0.0
130
0.0
111
1.0
121
0.0
131
0.0
112
0.0
122
1.0
132
0.0
 79
     0
146
0.0
  0
VPORT
  5
125
330
8
100
AcDbSymbolTableRecord
100
AcDbViewportTableRecord
  2
L3
 70
     0
 10
0.0
 20
0.5
 11
1.0
 21
1.0
 12
186.588541
 22
145.325628
 13
0.0
 23
0.0
 14
0.5
 24
0.5
 15
0.5
 25
0.5
 16
0.0
 26
0.0
 36
1.0
 17
0.0
 27
0.0
 37
0.0
 40
254.0
 41
0.069908
 42
50.0
 43
425.232964
 44
-425.232964
 50
0.0
 51
0.0
 71
     0
 72
   100
 73
     1
 74
     3
 75
     0
 76
     0
 77
     0
 78
     0
281
     0
 65
     1
110
0.0
120
0.0
130
0.0
111
1.0
121
0.0
131
0.0
112
0.0
122
1.0
132
0.0
 79
     0
146
0.0
  0
VPORT
  5
126
330
8
100
AcDbSymbolTableRecord
100
AcDbViewportTableRecord
  2
L3
 70
     0
 10
0.0
 20
0.0
 11
1.0
 21
0.5
 12
0.0
 22
0.0
 13
0.0
 23
0.0
 14
0.5
 24
0.5
 15
0.5
 25
0.5
 16
0.0
 26
-1.0
 36
0.0
 17
0.0
 27
0.0
 37
0.0
 40
1500.38241
 41
0.011835
 42
50.0
 43
770.104354
 44
-770.104354
 50
0.0
 51
0.0
 71
     0
 72
   100
 73
     1
 74
     3
 75
     0
 76
     0
 77
     0
 78
     0
281
     0
 65
     1
110
0.0
120
0.0
130
0.0
111
1.0
121
0.0
131
0.0
112
0.0
122
1.0
132
0.0
 79
     0
146
0.0
  0
VPORT
  5
127
330
8
100
AcDbSymbolTableRecord
100
AcDbViewportTableRecord
  2
L4
 70
     0
 10
0.0
 20
0.5
 11
0.5
 21
1.0
 12
186.588541
 22
145.325628
 13
0.0
 23
0.0
 14
0.5
 24
0.5
 15
0.5
 25
0.5
 16
0.0
 26
0.0
 36
1.0
 17
0.0
 27
0.0
 37
0.0
 40
254.0
 41
0.069908
 42
50.0
 43
425.232964
 44
-425.232964
 50
0.0
 51
0.0
 71
     0
 72
   100
 73
     1
 74
     3
 75
     0
 76
     0
 77
     0
 78
     0
281
     0
 65
     1
110
0.0
120
0.0
130
0.0
111
1.0
121
0.0
131
0.0
112
0.0
122
1.0
132
0.0
 79
     0
146
0.0
  0
VPORT
  5
128
330
8
100
AcDbSymbolTableRecord
100
AcDbViewportTableRecord
  2
L4
 70
     0
 10
0.0
 20
0.0
 11
0.5
 21
0.5
 12
0.0
 22
0.0
 13
0.0
 23
0.0
 14
0.5
 24
0.5
 15
0.5
 25
0.5
 16
0.0
 26
-1.0
 36
0.0
 17
0.0
 27
0.0
 37
0.0
 40
1500.38241
 41
0.011835
 42
50.0
 43
770.104354
 44
-770.104354
 50
0.0
 51
0.0
 71
     0
 72
   100
 73
     1
 74
     3
 75
     0
 76
     0
 77
     0
 78
     0
281
     0
 65
     1
110
0.0
120
0.0
130
0.0
111
1.0
121
0.0
131
0.0
112
0.0
122
1.0
132
0.0
 79
     0
146
0.0
  0
VPORT
  5
129
330
8
100
AcDbSymbolTableRecord
100
AcDbViewportTableRecord
  2
L4
 70
     0
 10
0.5
 20
0.0
 11
1.0
 21
0.5
 12
0.0
 22
0.0
 13
0.0
 23
0.0
 14
0.5
 24
0.5
 15
0.5
 25
0.5
 16
1.0
 26
0.0
 36
0.0
 17
0.0
 27
0.0
 37
0.0
 40
1500.38241
 41
0.011835
 42
50.0
 43
760.865195
 44
-760.865195
 50
0.0
 51
0.0
 71
     0
 72
   100
 73
     1
 74
     3
 75
     0
 76
     0
 77
     0
 78
     0
281
     0
 65
     1
110
0.0
120
0.0
130
0.0
111
1.0
121
0.0
131
0.0
112
0.0
122
1.0
132
0.0
 79
     0
146
0.0
  0
VPORT
  5
12A
330
8
100
AcDbSymbolTableRecord
100
AcDbViewportTableRecord
  2
L4
 70
     0
 10
0.5
 20
0.5
 11
1.0
 21
1.0
 12
0.0
 22
0.0
 13
0.0
 23
0.0
 14
0.5
 24
0.5
 15
0.5
 25
0.5
 16
0.5773502691896258
 26
-0.5773502691896258
 36
0.5773502691896258
 17
0.0
 27
0.0
 37
0.0
 40
1470.817585
 41
0.012073
 42
50.0
 43
765.587847
 44
-765.587847
 50
0.0
 51
0.0
 71
     0
 72
   100
 73
     1
 74
     3
 75
     0
 76
     0
 77
     0
 78
     0
281
     0
 65
     1
110
0.0
120
0.0
130
0.0
111
1.0
121
0.0
131
0.0
112
0.0
122
1.0
132
0.0
 79
     0
146
0.0
  0
VPORT
  5
12B
330
8
100
AcDbSymbolTableRecord
100
AcDbViewportTableRecord
  2
L6
 70
     0
 10
0.0
 20
0.5
 11
0.333333
 21
1.0
 12
0.0
 22
0.0
 13
0.0
 23
0.0
 14
0.5
 24
0.5
 15
0.5
 25
0.5
 16
0.7188730927569433
 26
-0.5850486126764433
 36
0.3754192287502549
 17
0.0
 27
0.0
 37
0.0
 40
1552.153934
 41
0.01144
 42
50.0
 43
803.552652
 44
-803.552652
 50
0.0
 51
0.0
 71
     0
 72
   100
 73
     1
 74
     3
 75
     0
 76
     0
 77
     0
 78
     0
281
     0
 65
     1
110
0.0
120
0.0
130
0.0
111
1.0
121
0.0
131
0.0
112
0.0
122
1.0
132
0.0
 79
     0
146
0.0
  0
VPORT
  5
12C
330
8
100
AcDbSymbolTableRecord
100
AcDbViewportTableRecord
  2
L6
 70
     0
 10
0.0
 20
0.0
 11
0.333333
 21
0.5
 12
0.0
 22
0.0
 13
0.0
 23
0.0
 14
0.5
 24
0.5
 15
0.5
 25
0.5
 16
-1.0
 26
0.0
 36
0.0
 17
0.0
 27
0.0
 37
0.0
 40
1500.38241
 41
0.011835
 42
50.0
 43
760.865195
 44
-760.865195
 50
0.0
 51
0.0
 71
     0
 72
   100
 73
     1
 74
     3
 75
     0
 76
     0
 77
     0
 78
     0
281
     0
 65
     1
110
0.0
120
0.0
130
0.0
111
1.0
121
0.0
131
0.0
112
0.0
122
1.0
132
0.0
 79
     0
146
0.0
  0
VPORT
  5
12D
330
8
100
AcDbSymbolTableRecord
100
AcDbViewportTableRecord
  2
L6
 70
     0
 10
0.333333
 20
0.5
 11
0.666667
 21
1.0
 12
186.588541
 22
145.325628
 13
0.0
 23
0.0
 14
0.5
 24
0.5
 15
0.5
 25
0.5
 16
0.0
 26
0.0
 36
1.0
 17
0.0
 27
0.0
 37
0.0
 40
254.0
 41
0.069908
 42
50.0
 43
425.232964
 44
-425.232964
 50
0.0
 51
0.0
 71
     0
 72
   100
 73
     1
 74
     3
 75
     0
 76
     0
 77
     0
 78
     0
281
     0
 65
     1
110
0.0
120
0.0
130
0.0
111
1.0
121
0.0
131
0.0
112
0.0
122
1.0
132
0.0
 79
     0
146
0.0
  0
VPORT
  5
12E
330
8
100
AcDbSymbolTableRecord
100
AcDbViewportTableRecord
  2
L6
 70
     0
 10
0.333333
 20
0.0
 11
0.666667
 21
0.5
 12
0.0
 22
0.0
 13
0.0
 23
0.0
 14
0.5
 24
0.5
 15
0.5
 25
0.5
 16
0.0
 26
-1.0
 36
0.0
 17
0.0
 27
0.0
 37
0.0
 40
1500.38241
 41
0.011835
 42
50.0
 43
770.104354
 44
-770.104354
 50
0.0
 51
0.0
 71
     0
 72
   100
 73
     1
 74
     3
 75
     0
 76
     0
 77
     0
 78
     0
281
     0
 65
     1
110
0.0
120
0.0
130
0.0
111
1.0
121
0.0
131
0.0
112
0.0
122
1.0
132
0.0
 79
     0
146
0.0
  0
VPORT
  5
12F
330
8
100
AcDbSymbolTableRecord
100
AcDbViewportTableRecord
  2
L6
 70
     0
 10
0.666667
 20
0.5
 11
1.0
 21
1.0
 12
0.0
 22
0.0
 13
0.0
 23
0.0
 14
0.5
 24
0.5
 15
0.5
 25
0.5
 16
0.5773502691896258
 26
-0.5773502691896258
 36
0.5773502691896258
 17
0.0
 27
0.0
 37
0.0
 40
1470.817585
 41
0.012073
 42
50.0
 43
765.587847
 44
-765.587847
 50
0.0
 51
0.0
 71
     0
 72
   100
 73
     1
 74
     3
 75
     0
 76
     0
 77
     0
 78
     0
281
     0
 65
     1
110
0.0
120
0.0
130
0.0
111
1.0
121
0.0
131
0.0
112
0.0
122
1.0
132
0.0
 79
     0
146
0.0
  0
VPORT
  5
130
330
8
100
AcDbSymbolTableRecord
100
AcDbViewportTableRecord
  2
L6
 70
     0
 10
0.666667
 20
0.0
 11
1.0
 21
0.5
 12
0.0
 22
0.0
 13
0.0
 23
0.0
 14
0.5
 24
0.5
 15
0.5
 25
0.5
 16
1.0
 26
0.0
 36
0.0
 17
0.0
 27
0.0
 37
0.0
 40
1500.38241
 41
0.011835
 42
50.0
 43
760.865195
 44
-760.865195
 50
0.0
 51
0.0
 71
     0
 72
   100
 73
     1
 74
     3
 75
     0
 76
     0
 77
     0
 78
     0
281
     0
 65
     1
110
0.0
120
0.0
130
0.0
111
1.0
121
0.0
131
0.0
112
0.0
122
1.0
132
0.0
 79
     0
146
0.0
  0
ENDTAB
  0
TABLE
  2
LTYPE
  5
5
330
0
100
AcDbSymbolTable
 70
     6
  0
LTYPE
  5
14
330
5
100
AcDbSymbolTableRecord
100
AcDbLinetypeTableRecord
  2
ByBlock
 70
     0
  3

 72
    65
 73
     0
 40
0.0
  0
LTYPE
  5
15
330
5
100
AcDbSymbolTableRecord
100
AcDbLinetypeTableRecord
  2
ByLayer
 70
     0
  3

 72
    65
 73
     0
 40
0.0
  0
LTYPE
  5
16
330
5
100
AcDbSymbolTableRecord
100
AcDbLinetypeTableRecord
  2
Continuous
 70
     0
  3
Solid line
 72
    65
 73
     0
 40
0.0
  0
LTYPE
  5
6E
330
5
100
AcDbSymbolTableRecord
100
AcDbLinetypeTableRecord
  2
CENTER
 70
     0
  3
____ _ ____ _ ____ _ ____
 72
    65
 73
     4
 40
47.4
 49
22.0
 74
     4
 75
     0
340
0
 46
0.0
 50
0.0
 44
0.0
 45
0.0
 49
-8.5
 74
     4
 75
     0
340
0
 46
0.0
 50
0.0
 44
0.0
 45
0.0
 49
8.5
 74
     4
 75
     0
340
0
 46
0.0
 50
0.0
 44
0.0
 45
0.0
 49
-8.5
 74
     4
 75
     0
340
0
 46
0.0
 50
0.0
 44
0.0
 45
0.0
  0
LTYPE
  5
6F
330
5
100
AcDbSymbolTableRecord
100
AcDbLinetypeTableRecord
  2
DASHDOT
 70
     0
  3
_._._._._._._._._._._._._._._._.
 72
    65
 73
     4
 40
70.0
 49
31.0
 74
     4
 75
     0
340
0
 46
0.0
 50
0.0
 44
0.0
 45
0.0
 49
-13.0
 74
     4
 75
     0
340
0
 46
0.0
 50
0.0
 44
0.0
 45
0.0
 49
13.0
 74
     4
 75
     0
340
0
 46
0.0
 50
0.0
 44
0.0
 45
0.0
 49
-13.0
 74
     4
 75
     0
340
0
 46
0.0
 50
0.0
 44
0.0
 45
0.0
  0
LTYPE
  5
70
330
5
100
AcDbSymbolTableRecord
100
AcDbLinetypeTableRecord
  2
DASHED
 70
     0
  3
__ __ __ __ __ __ __ __ __
 72
    65
 73
     2
 40
25.72
 49
12.86
 74
     4
 75
     0
340
0
 46
0.0
 50
0.0
 44
0.0
 45
0.0
 49
-12.86
 74
     4
 75
     0
340
0
 46
0.0
 50
0.0
 44
0.0
 45
0.0
  0
LTYPE
  5
71
330
5
100
AcDbSymbolTableRecord
100
AcDbLinetypeTableRecord
  2
DOT
 70
     0
  3
.........................
 72
    65
 73
     2
 40
10.0
 49
0.0
 74
     4
 75
     0
340
0
 46
0.0
 50
0.0
 44
0.0
 45
0.0
 49
-10.0
 74
     4
 75
     0
340
0
 46
0.0
 50
0.0
 44
0.0
 45
0.0
  0
LTYPE
  5
72
330
5
100
AcDbSymbolTableRecord
100
AcDbLinetypeTableRecord
  2
PHANTOM
 70
     0
  3
____ _ _ ____ _ _ _____ _ _ ____
 72
    65
 73
     6
 40
50.5
 49
18.0
 74
     4
 75
     0
340
0
 46
0.0
 50
0.0
 44
0.0
 45
0.0
 49
-6.5
 74
     4
 75
     0
340
0
 46
0.0
 50
0.0
 44
0.0
 45
0.0
 49
6.5
 74
     4
 75
     0
340
0
 46
0.0
 50
0.0
 44
0.0
 45
0.0
 49
-6.5
 74
     4
 75
     0
340
0
 46
0.0
 50
0.0
 44
0.0
 45
0.0
 49
6.5
 74
     4
 75
     0
340
0
 46
0.0
 50
0.0
 44
0.0
 45
0.0
 49
-6.5
 74
     4
 75
     0
340
0
 46
0.0
 50
0.0
 44
0.0
 45
0.0
  0
ENDTAB
  0
TABLE
  2
LAYER
  5
2
330
0
100
AcDbSymbolTable
 70
     2
  0
LAYER
  5
10
330
2
100
AcDbSymbolTableRecord
100
AcDbLayerTableRecord
  2
0
 70
     0
 62
     7
  6
Continuous
370
    -3
390
F
  0
LAYER
  5
74
330
2
100
AcDbSymbolTableRecord
100
AcDbLayerTableRecord
  2
1
 70
     0
 62
     7
420
 16777215
  6
Continuous
370
    -3
390
F
  0
ENDTAB
  0
TABLE
  2
STYLE
  5
3
330
0
100
AcDbSymbolTable
 70
     1
  0
STYLE
  5
11
330
3
100
AcDbSymbolTableRecord
100
AcDbTextStyleTableRecord
  2
Standard
 70
     0
 40
0.0
 41
1.0
 50
0.0
 71
     0
 42
0.2
  3
txt
  4

  0
ENDTAB
  0
TABLE
  2
VIEW
  5
6
330
0
100
AcDbSymbolTable
 70
     0
  0
ENDTAB
  0
TABLE
  2
UCS
  5
7
330
0
100
AcDbSymbolTable
 70
     0
  0
ENDTAB
  0
TABLE
  2
APPID
  5
9
330
0
100
AcDbSymbolTable
 70
     2
  0
APPID
  5
12
330
9
100
AcDbSymbolTableRecord
100
AcDbRegAppTableRecord
  2
ACAD
 70
     0
  0
APPID
  5
170
330
9
100
AcDbSymbolTableRecord
100
AcDbRegAppTableRecord
  2
ACAD_MLEADERVER
 70
     0
  0
ENDTAB
  0
TABLE
  2
DIMSTYLE
  5
A
330
0
100
AcDbSymbolTable
 70
     1
100
AcDbDimStyleTable
  0
DIMSTYLE
105
27
330
A
100
AcDbSymbolTableRecord
100
AcDbDimStyleTableRecord
  2
Standard
 70
     0
178
     0
340
11
  0
ENDTAB
  0
TABLE
  2
BLOCK_RECORD
  5
1
330
0
100
AcDbSymbolTable
 70
     1
  0
BLOCK_RECORD
  5
1F
330
1
100
AcDbSymbolTableRecord
100
AcDbBlockTableRecord
  2
*Model_Space
340
22
  0
BLOCK_RECORD
  5
1B
330
1
100
AcDbSymbolTableRecord
100
AcDbBlockTableRecord
  2
*Paper_Space
340
1E
  0
BLOCK_RECORD
  5
23
330
1
100
AcDbSymbolTableRecord
100
AcDbBlockTableRecord
  2
*Paper_Space0
340
26
  0
ENDTAB
  0
ENDSEC
  0
SECTION
  2
BLOCKS
  0
BLOCK
  5
20
330
1F
100
AcDbEntity
  8
0
100
AcDbBlockBegin
  2
*Model_Space
 70
     0
 10
0.0
 20
0.0
 30
0.0
  3
*Model_Space
  1

  0
ENDBLK
  5
21
330
1F
100
AcDbEntity
  8
0
100
AcDbBlockEnd
  0
BLOCK
  5
1C
330
1B
100
AcDbEntity
 67
     1
  8
0
100
AcDbBlockBegin
  2
*Paper_Space
 70
     0
 10
0.0
 20
0.0
 30
0.0
  3
*Paper_Space
  1

  0
ENDBLK
  5
1D
330
1B
100
AcDbEntity
 67
     1
  8
0
100
AcDbBlockEnd
  0
BLOCK
  5
24
330
23
100
AcDbEntity
  8
0
100
AcDbBlockBegin
  2
*Paper_Space0
 70
     0
 10
0.0
 20
0.0
 30
0.0
  3
*Paper_Space0
  1

  0
ENDBLK
  5
25
330
23
100
AcDbEntity
  8
0
100
AcDbBlockEnd
  0
ENDSEC
  0
SECTION
  2
ENTITIES
  0
LINE
  5
73
330
1F
100
AcDbEntity
  8
1
  6
Continuous
 62
     1
370
    13
100
AcDbLine
 10
127.176937
 20
200.804755
 30
0.0
 11
125.342438
 21
200.804755
 31
0.0
  0
LINE
  5
75
330
1F
100
AcDbEntity
  8
1
  6
Continuous
 62
     1
370
    13
100
AcDbLine
 10
118.778715
 20
199.933633
 30
0.0
 11
121.575159
 21
199.933633
 31
0.0
  0
LINE
  5
76
330
1F
100
AcDbEntity
  8
1
  6
Continuous
 62
     1
370
    13
100
AcDbLine
 10
121.575159
 20
198.804755
 30
0.0
 11
121.575159
 21
199.933633
 31
0.0
  0
LINE
  5
77
330
1F
100
AcDbEntity
  8
1
  6
Continuous
 62
     1
370
    13
100
AcDbLine
 10
118.778715
 20
199.933633
 30
0.0
 11
118.778715
 21
198.804755
 31
0.0
  0
LINE
  5
78
330
1F
100
AcDbEntity
  8
1
  6
Continuous
 62
     1
370
    13
100
AcDbLine
 10
113.176937
 20
200.804755
 30
0.0
 11
115.011436
 21
200.804755
 31
0.0
  0
LINE
  5
79
330
1F
100
AcDbEntity
  8
1
  6
Continuous
 62
     1
370
    18
100
AcDbLine
 10
110.176937
 20
198.804755
 30
0.0
 11
130.176937
 21
198.804755
 31
0.0
  0
LINE
  5
7A
330
1F
100
AcDbEntity
  8
1
  6
Continuous
 62
     1
370
    18
100
AcDbLine
 10
127.176937
 20
200.804755
 30
0.0
 11
127.176937
 21
200.997495
 31
0.0
  0
LINE
  5
7B
330
1F
100
AcDbEntity
  8
1
  6
Continuous
 62
     1
370
    18
100
AcDbLine
 10
113.176937
 20
201.07904
 30
0.0
 11
113.176937
 21
200.804755
 31
0.0
  0
LINE
  5
7C
330
1F
100
AcDbEntity
  8
1
  6
Continuous
 62
     1
370
    18
100
AcDbLine
 10
130.176937
 20
190.004755
 30
0.0
 11
130.176937
 21
198.804755
 31
0.0
  0
LINE
  5
7D
330
1F
100
AcDbEntity
  8
1
  6
Continuous
 62
     1
370
    18
100
AcDbLine
 10
125.176937
 20
161.004755
 30
0.0
 11
125.176937
 21
190.004755
 31
0.0
  0
LINE
  5
7E
330
1F
100
AcDbEntity
  8
1
  6
Continuous
 62
     1
370
    18
100
AcDbLine
 10
115.176937
 20
190.004755
 30
0.0
 11
115.176937
 21
161.004755
 31
0.0
  0
LINE
  5
7F
330
1F
100
AcDbEntity
  8
1
  6
Continuous
 62
     1
370
    18
100
AcDbLine
 10
124.176937
 20
160.004755
 30
0.0
 11
125.176937
 21
161.004755
 31
0.0
  0
LINE
  5
80
330
1F
100
AcDbEntity
  8
1
  6
Continuous
 62
     1
370
    18
100
AcDbLine
 10
115.176937
 20
161.004755
 30
0.0
 11
116.176937
 21
160.004755
 31
0.0
  0
LINE
  5
81
330
1F
100
AcDbEntity
  8
1
  6
Continuous
 62
     1
370
    18
100
AcDbLine
 10
110.176937
 20
190.004755
 30
0.0
 11
130.176937
 21
190.004755
 31
0.0
  0
LINE
  5
82
330
1F
100
AcDbEntity
  8
1
  6
Continuous
 62
     1
370
    18
100
AcDbLine
 10
115.176937
 20
161.004755
 30
0.0
 11
125.176937
 21
161.004755
 31
0.0
  0
LINE
  5
83
330
1F
100
AcDbEntity
  8
1
  6
Continuous
 62
     1
370
    18
100
AcDbLine
 10
110.176937
 20
198.804755
 30
0.0
 11
110.176937
 21
190.004755
 31
0.0
  0
LINE
  5
84
330
1F
100
AcDbEntity
  8
1
  6
Continuous
 62
     1
370
    18
100
AcDbLine
 10
116.176937
 20
160.004755
 30
0.0
 11
124.176937
 21
160.004755
 31
0.0
  0
LINE
  5
85
330
1F
100
AcDbEntity
  8
1
  6
Continuous
 62
     1
370
    18
100
AcDbLine
 10
258.916415
 20
160.004755
 30
0.0
 11
262.916415
 21
160.004755
 31
0.0
  0
LINE
  5
86
330
1F
100
AcDbEntity
  8
1
  6
Continuous
 62
     1
370
    18
100
AcDbLine
 10
262.916415
 20
160.004755
 30
0.0
 11
266.916415
 21
160.004755
 31
0.0
  0
LINE
  5
87
330
1F
100
AcDbEntity
  8
1
  6
Continuous
 62
     1
370
    18
100
AcDbLine
 10
267.916415
 20
161.004755
 30
0.0
 11
262.916415
 21
161.004755
 31
0.0
  0
LINE
  5
88
330
1F
100
AcDbEntity
  8
1
  6
Continuous
 62
     1
370
    18
100
AcDbLine
 10
262.916415
 20
161.004755
 30
0.0
 11
257.916415
 21
161.004755
 31
0.0
  0
LINE
  5
89
330
1F
100
AcDbEntity
  8
1
  6
Continuous
 62
     1
370
    13
100
AcDbLine
 10
259.628324
 20
202.500671
 30
0.0
 11
258.192265
 21
200.804755
 31
0.0
  0
LINE
  5
8A
330
1F
100
AcDbEntity
  8
1
  6
Continuous
 62
     1
370
    13
100
AcDbLine
 10
267.640566
 20
200.804755
 30
0.0
 11
266.204507
 21
202.500671
 31
0.0
  0
LINE
  5
8B
330
1F
100
AcDbEntity
  8
1
  6
Continuous
 62
     1
370
    18
100
AcDbLine
 10
267.116033
 20
204.592212
 30
0.0
 11
269.28415
 21
200.111437
 31
0.0
  0
LINE
  5
8C
330
1F
100
AcDbEntity
  8
1
  6
Continuous
 62
     1
370
    13
100
AcDbLine
 10
258.192265
 20
200.804755
 30
0.0
 11
267.640566
 21
200.804755
 31
0.0
  0
LINE
  5
8D
330
1F
100
AcDbEntity
  8
1
  6
Continuous
 62
     1
370
    18
100
AcDbLine
 10
272.916415
 20
198.804755
 30
0.0
 11
262.916415
 21
198.804755
 31
0.0
  0
LINE
  5
8E
330
1F
100
AcDbEntity
  8
1
  6
Continuous
 62
     1
370
    18
100
AcDbLine
 10
262.916415
 20
198.804755
 30
0.0
 11
252.916415
 21
198.804755
 31
0.0
  0
LINE
  5
8F
330
1F
100
AcDbEntity
  8
1
  6
Continuous
 62
     1
370
    18
100
AcDbLine
 10
272.916415
 20
190.004755
 30
0.0
 11
262.916415
 21
190.004755
 31
0.0
  0
LINE
  5
90
330
1F
100
AcDbEntity
  8
1
  6
Continuous
 62
     1
370
    18
100
AcDbLine
 10
262.916415
 20
190.004755
 30
0.0
 11
252.916415
 21
190.004755
 31
0.0
  0
LINE
  5
91
330
1F
100
AcDbEntity
  8
1
  6
Continuous
 62
     1
370
    18
100
AcDbLine
 10
266.916415
 20
205.455492
 30
0.0
 11
266.916415
 21
205.484524
 31
0.0
  0
LINE
  5
92
330
1F
100
AcDbEntity
  8
1
  6
Continuous
 62
     1
370
    18
100
AcDbLine
 10
266.916415
 20
205.484524
 30
0.0
 11
266.916415
 21
235.004755
 31
0.0
  0
LINE
  5
93
330
1F
100
AcDbEntity
  8
1
  6
Continuous
 62
     1
370
    18
100
AcDbLine
 10
272.916415
 20
190.004755
 30
0.0
 11
272.916415
 21
198.804755
 31
0.0
  0
LINE
  5
94
330
1F
100
AcDbEntity
  8
1
  6
Continuous
 62
     1
370
    18
100
AcDbLine
 10
252.916415
 20
198.804755
 30
0.0
 11
252.916415
 21
190.004755
 31
0.0
  0
LINE
  5
95
330
1F
100
AcDbEntity
  8
1
  6
Continuous
 62
     1
370
    18
100
AcDbLine
 10
267.916415
 20
161.004755
 30
0.0
 11
267.916415
 21
190.004755
 31
0.0
  0
LINE
  5
96
330
1F
100
AcDbEntity
  8
1
  6
Continuous
 62
     1
370
    18
100
AcDbLine
 10
257.916415
 20
190.004755
 30
0.0
 11
257.916415
 21
161.004755
 31
0.0
  0
LINE
  5
97
330
1F
100
AcDbEntity
  8
1
  6
Continuous
 62
     1
370
    18
100
AcDbLine
 10
266.916415
 20
160.004755
 30
0.0
 11
267.916415
 21
161.004755
 31
0.0
  0
LINE
  5
98
330
1F
100
AcDbEntity
  8
1
  6
Continuous
 62
     1
370
    18
100
AcDbLine
 10
257.916415
 20
161.004755
 30
0.0
 11
258.916415
 21
160.004755
 31
0.0
  0
LINE
  5
99
330
1F
100
AcDbEntity
  8
1
  6
Continuous
 62
     1
370
    18
100
AcDbLine
 10
258.916415
 20
235.004755
 30
0.0
 11
258.916415
 21
205.49105
 31
0.0
  0
LINE
  5
9A
330
1F
100
AcDbEntity
  8
1
  6
Continuous
 62
     1
370
    18
100
AcDbLine
 10
256.548681
 20
200.111437
 30
0.0
 11
258.716798
 21
204.592212
 31
0.0
  0
LINE
  5
9B
330
1F
100
AcDbEntity
  8
1
  6
Continuous
 62
     1
370
    13
100
AcDbLine
 10
118.778715
 20
59.900655
 30
0.0
 11
121.575159
 21
59.900655
 31
0.0
  0
LINE
  5
9C
330
1F
100
AcDbEntity
  8
1
  6
Continuous
 62
     1
370
    13
100
AcDbLine
 10
121.575159
 20
43.392481
 30
0.0
 11
118.778715
 21
43.392481
 31
0.0
  0
LINE
  5
9D
330
1F
100
AcDbEntity
  8
1
  6
Continuous
 62
     1
370
    13
100
AcDbLine
 10
118.778715
 20
59.900655
 30
0.0
 11
118.778715
 21
58.100336
 31
0.0
  0
LINE
  5
9E
330
1F
100
AcDbEntity
  8
1
  6
Continuous
 62
     1
370
    13
100
AcDbLine
 10
121.575159
 20
43.392481
 30
0.0
 11
121.575159
 21
45.192799
 31
0.0
  0
LINE
  5
9F
330
1F
100
AcDbEntity
  8
1
  6
Continuous
 62
     1
370
    13
100
AcDbLine
 10
121.575159
 20
59.900655
 30
0.0
 11
121.575159
 21
58.100336
 31
0.0
  0
LINE
  5
A0
330
1F
100
AcDbEntity
  8
1
  6
Continuous
 62
     1
370
    13
100
AcDbLine
 10
118.778715
 20
45.192799
 30
0.0
 11
118.778715
 21
43.392481
 31
0.0
  0
LINE
  5
A1
330
1F
100
AcDbEntity
  8
1
  6
Continuous
 62
     1
370
    13
100
AcDbLine
 10
121.968073
 20
59.892297
 30
0.0
 11
121.890521
 21
58.060908
 31
0.0
  0
LINE
  5
A2
330
1F
100
AcDbEntity
  8
1
  6
Continuous
 62
     1
370
    13
100
AcDbLine
 10
125.342438
 20
56.370718
 30
0.0
 11
126.818296
 21
57.720475
 31
0.0
  0
LINE
  5
A3
330
1F
100
AcDbEntity
  8
1
  6
Continuous
 62
     1
370
    13
100
AcDbLine
 10
118.463353
 20
45.232228
 30
0.0
 11
118.385801
 21
43.400839
 31
0.0
  0
LINE
  5
A4
330
1F
100
AcDbEntity
  8
1
  6
Continuous
 62
     1
370
    13
100
AcDbLine
 10
118.463353
 20
58.060908
 30
0.0
 11
118.385801
 21
59.892297
 31
0.0
  0
LINE
  5
A5
330
1F
100
AcDbEntity
  8
1
  6
Continuous
 62
     1
370
    13
100
AcDbLine
 10
115.011436
 20
56.370718
 30
0.0
 11
113.535578
 21
57.720475
 31
0.0
  0
LINE
  5
A6
330
1F
100
AcDbEntity
  8
1
  6
Continuous
 62
     1
370
    13
100
AcDbLine
 10
125.342438
 20
46.922418
 30
0.0
 11
126.818296
 21
45.57266
 31
0.0
  0
LINE
  5
A7
330
1F
100
AcDbEntity
  8
1
  6
Continuous
 62
     1
370
    13
100
AcDbLine
 10
121.968073
 20
43.400839
 30
0.0
 11
121.890521
 21
45.232228
 31
0.0
  0
LINE
  5
A8
330
1F
100
AcDbEntity
  8
1
  6
Continuous
 62
     1
370
    13
100
AcDbLine
 10
121.575159
 20
58.100336
 30
0.0
 11
118.778715
 21
58.100336
 31
0.0
  0
LINE
  5
A9
330
1F
100
AcDbEntity
  8
1
  6
Continuous
 62
     1
370
    13
100
AcDbLine
 10
118.778715
 20
45.192799
 30
0.0
 11
121.575159
 21
45.192799
 31
0.0
  0
LINE
  5
AA
330
1F
100
AcDbEntity
  8
1
  6
Continuous
 62
     1
370
    13
100
AcDbLine
 10
115.011436
 20
46.922418
 30
0.0
 11
113.535578
 21
45.57266
 31
0.0
  0
LINE
  5
AB
330
1F
100
AcDbEntity
  8
1
  6
Continuous
 62
     1
370
    18
100
AcDbLine
 10
135.260666
 20
55.646568
 30
0.0
 11
105.260666
 21
55.646568
 31
0.0
  0
LINE
  5
AC
330
1F
100
AcDbEntity
  8
1
  6
Continuous
 62
     1
370
    18
100
AcDbLine
 10
105.260666
 20
47.646568
 30
0.0
 11
135.260666
 21
47.646568
 31
0.0
  0
ARC
  5
AD
330
1F
100
AcDbEntity
  8
1
  6
Continuous
 62
     1
370
    18
100
AcDbCircle
 10
120.260666
 20
220.004755
 30
0.0
 40
19.0
100
AcDbArc
 50
295.111414
 51
0.0
  0
ARC
  5
AE
330
1F
100
AcDbEntity
  8
1
  6
Continuous
 62
     1
370
    18
100
AcDbCircle
 10
129.176937
 20
200.804755
 30
0.0
 40
2.0
100
AcDbArc
 50
180.0
 51
270.0
  0
ARC
  5
AF
330
1F
100
AcDbEntity
  8
1
  6
Continuous
 62
     1
370
    18
100
AcDbCircle
 10
111.176937
 20
200.804755
 30
0.0
 40
2.0
100
AcDbArc
 50
270.0
 51
0.0
  0
CIRCLE
  5
B0
330
1F
100
AcDbEntity
  8
1
  6
Continuous
 62
     1
370
    18
100
AcDbCircle
 10
120.260666
 20
220.004755
 30
0.0
 40
11.0
  0
ARC
  5
B1
330
1F
100
AcDbEntity
  8
1
  6
Continuous
 62
     1
370
    18
100
AcDbCircle
 10
120.260666
 20
220.004755
 30
0.0
 40
19.0
100
AcDbArc
 50
0.0
 51
244.383932
  0
ARC
  5
B2
330
1F
100
AcDbEntity
  8
1
  6
Continuous
 62
     1
370
    18
100
AcDbCircle
 10
254.662328
 20
200.804755
 30
0.0
 40
2.0
100
AcDbArc
 50
270.0
 51
334.179008
  0
ARC
  5
B3
330
1F
100
AcDbEntity
  8
1
  6
Continuous
 62
     1
370
    18
100
AcDbCircle
 10
271.170503
 20
200.804755
 30
0.0
 40
2.0
100
AcDbArc
 50
205.820992
 51
270.0
  0
ARC
  5
B4
330
1F
100
AcDbEntity
  8
1
  6
Continuous
 62
     1
370
    18
100
AcDbCircle
 10
262.916415
 20
235.004755
 30
0.0
 40
4.0
100
AcDbArc
 50
0.0
 51
180.0
  0
ARC
  5
B5
330
1F
100
AcDbEntity
  8
1
  6
Continuous
 62
     1
370
    13
100
AcDbCircle
 10
120.176937
 20
51.646568
 30
0.0
 40
9.000000000000002
100
AcDbArc
 50
26.387353
 51
42.444724
  0
ARC
  5
B6
330
1F
100
AcDbEntity
  8
1
  6
Continuous
 62
     1
370
    13
100
AcDbCircle
 10
120.176937
 20
51.646568
 30
0.0
 40
9.000000000000002
100
AcDbArc
 50
317.555276
 51
333.612647
  0
ARC
  5
B7
330
1F
100
AcDbEntity
  8
1
  6
Continuous
 62
     1
370
    18
100
AcDbCircle
 10
120.176937
 20
51.646568
 30
0.0
 40
10.0
100
AcDbArc
 50
203.579998
 51
336.425626
  0
ARC
  5
B8
330
1F
100
AcDbEntity
  8
1
  6
Continuous
 62
     1
370
    18
100
AcDbCircle
 10
120.176937
 20
51.646568
 30
0.0
 40
10.0
100
AcDbArc
 50
23.574374
 51
156.420002
  0
ARC
  5
B9
330
1F
100
AcDbEntity
  8
1
  6
Continuous
 62
     1
370
    13
100
AcDbCircle
 10
120.176937
 20
51.646568
 30
0.0
 40
9.000000000000002
100
AcDbArc
 50
206.387353
 51
222.444724
  0
ARC
  5
BA
330
1F
100
AcDbEntity
  8
1
  6
Continuous
 62
     1
370
    13
100
AcDbCircle
 10
120.176937
 20
51.646568
 30
0.0
 40
9.000000000000002
100
AcDbArc
 50
137.555276
 51
153.612647
  0
ARC
  5
BB
330
1F
100
AcDbEntity
  8
1
  6
Continuous
 62
     1
370
    18
100
AcDbCircle
 10
120.176937
 20
51.646568
 30
0.0
 40
7.000000000005662
100
AcDbArc
 50
34.849923
 51
42.444724
  0
ARC
  5
BC
330
1F
100
AcDbEntity
  8
1
  6
Continuous
 62
     1
370
    18
100
AcDbCircle
 10
120.176937
 20
51.646568
 30
0.0
 40
7.000000000051754
100
AcDbArc
 50
214.85012
 51
222.444724
  0
ARC
  5
BD
330
1F
100
AcDbEntity
  8
1
  6
Continuous
 62
     1
370
    13
100
AcDbCircle
 10
120.176937
 20
54.347046
 30
0.0
 40
4.00000000000013
100
AcDbArc
 50
22.011774
 51
66.464681
  0
ARC
  5
BE
330
1F
100
AcDbEntity
  8
1
  6
Continuous
 62
     1
370
    13
100
AcDbCircle
 10
120.176937
 20
48.94609
 30
0.0
 40
3.999999999999687
100
AcDbArc
 50
202.011018
 51
246.464681
  0
ARC
  5
BF
330
1F
100
AcDbEntity
  8
1
  6
Continuous
 62
     1
370
    13
100
AcDbCircle
 10
120.176937
 20
54.347046
 30
0.0
 40
4.000000000000236
100
AcDbArc
 50
113.535319
 51
157.988982
  0
ARC
  5
C0
330
1F
100
AcDbEntity
  8
1
  6
Continuous
 62
     1
370
    18
100
AcDbCircle
 10
120.176937
 20
51.646568
 30
0.0
 40
6.999999999999752
100
AcDbArc
 50
137.555276
 51
145.14988
  0
ARC
  5
C1
330
1F
100
AcDbEntity
  8
1
  6
Continuous
 62
     1
370
    13
100
AcDbCircle
 10
120.176937
 20
48.94609
 30
0.0
 40
4.000000000000199
100
AcDbArc
 50
293.535319
 51
337.988226
  0
ARC
  5
C2
330
1F
100
AcDbEntity
  8
1
  6
Continuous
 62
     1
370
    18
100
AcDbCircle
 10
120.176937
 20
51.646568
 30
0.0
 40
6.99999999995425
100
AcDbArc
 50
317.555276
 51
325.150077
  0
ARC
  5
C3
330
1F
100
AcDbEntity
  8
1
  6
Continuous
 62
     1
370
    18
100
AcDbCircle
 10
135.260666
 20
51.646568
 30
0.0
 40
4.0
100
AcDbArc
 50
270.0
 51
90.0
  0
ARC
  5
C4
330
1F
100
AcDbEntity
  8
1
  6
Continuous
 62
     1
370
    18
100
AcDbCircle
 10
105.260666
 20
51.646568
 30
0.0
 40
4.0
100
AcDbArc
 50
90.0
 51
270.0
  0
ELLIPSE
  5
C5
330
1F
100
AcDbEntity
  8
1
  6
Continuous
 62
     1
370
    13
100
AcDbEllipse
 10
118.57968
 20
198.804755
 30
0.0
 11
-2.007051235366509
 21
-2.229741092282638
 31
0.0
210
0.0
220
0.0
230
1.0
 40
0.307983
 41
4.382720513180625
 42
4.437586101407782
  0
ELLIPSE
  5
C6
330
1F
100
AcDbEntity
  8
1
  6
Continuous
 62
     1
370
    13
100
AcDbEllipse
 10
121.774194
 20
198.804755
 30
0.0
 11
-2.00705123536641
 21
2.229741092282727
 31
0.0
210
0.0
220
0.0
230
1.0
 40
0.307983
 41
4.98719185936198
 42
5.042057447588769
  0
ELLIPSE
  5
C7
330
1F
100
AcDbEntity
  8
1
  6
Continuous
 62
     1
370
    13
100
AcDbEllipse
 10
118.385801
 20
200.804755
 30
0.0
 11
0.0
 21
-2.0
 31
0.0
210
0.0
220
0.0
230
1.0
 40
0.042308
 41
0.0
 42
1.159279480727411
  0
ELLIPSE
  5
C8
330
1F
100
AcDbEntity
  8
1
  6
Continuous
 62
     1
370
    13
100
AcDbEllipse
 10
126.818296
 20
200.804755
 30
0.0
 11
0.0
 21
2.0
 31
0.0
210
0.0
220
0.0
230
1.0
 40
0.737929
 41
1.570796326794897
 42
3.141592653589793
  0
ELLIPSE
  5
C9
330
1F
100
AcDbEntity
  8
1
  6
Continuous
 62
     1
370
    13
100
AcDbEllipse
 10
121.968073
 20
200.804755
 30
0.0
 11
0.0
 21
2.0
 31
0.0
210
0.0
220
0.0
230
1.0
 40
0.042308
 41
1.982313172862628
 42
3.141592653589793
  0
ELLIPSE
  5
CA
330
1F
100
AcDbEntity
  8
1
  6
Continuous
 62
     1
370
    13
100
AcDbEllipse
 10
113.535578
 20
200.804755
 30
0.0
 11
0.0
 21
-2.0
 31
0.0
210
0.0
220
0.0
230
1.0
 40
0.737929
 41
0.0
 42
1.570796326794895
  0
ELLIPSE
  5
CB
330
1F
100
AcDbEntity
  8
1
  6
Continuous
 62
     1
370
    13
100
AcDbEllipse
 10
112.231633
 20
202.500671
 30
0.0
 11
-1.694312893603056
 21
1.062687074622835
 31
0.0
210
0.0
220
0.0
230
1.0
 40
0.706616
 41
3.867527035441957
 42
4.804597496656028
  0
ELLIPSE
  5
CC
330
1F
100
AcDbEntity
  8
1
  6
Continuous
 62
     1
370
    13
100
AcDbEllipse
 10
116.46849
 20
205.463334
 30
0.0
 11
-0.004781190996411971
 21
-1.999994285044999
 31
0.0
210
0.0
220
0.0
230
1.0
 40
0.001157
 41
1.120136383364224
 42
1.575275738557336
  0
ELLIPSE
  5
CD
330
1F
100
AcDbEntity
  8
1
  6
Continuous
 62
     1
370
    13
100
AcDbEllipse
 10
123.885364
 20
205.463229
 30
0.0
 11
-0.002264532899690172
 21
-1.999998717972276
 31
0.0
210
0.0
220
0.0
230
1.0
 40
0.000548
 41
1.120137411906807
 42
1.568609562727128
  0
ELLIPSE
  5
CE
330
1F
100
AcDbEntity
  8
1
  6
Continuous
 62
     1
370
    13
100
AcDbEllipse
 10
128.099392
 20
202.461483
 30
0.0
 11
-1.699515899898686
 21
-1.054346103512296
 31
0.0
210
0.0
220
0.0
230
1.0
 40
0.699219
 41
4.617656918941161
 42
5.557460862166287
  0
ELLIPSE
  5
CF
330
1F
100
AcDbEntity
  8
1
  6
Continuous
 62
     1
370
    13
100
AcDbEllipse
 10
120.176937
 20
207.690434
 30
0.0
 11
9.684031013883327E-15
 21
8.266666666667629
 31
0.0
210
0.0
220
0.0
230
1.0
 40
0.483871
 41
3.552361467031719
 42
4.328211044573492
  0
ELLIPSE
  5
D0
330
1F
100
AcDbEntity
  8
1
  6
Continuous
 62
     1
370
    13
100
AcDbEllipse
 10
120.176937
 20
206.383751
 30
0.0
 11
9.684031013871205E-15
 21
8.266666666657281
 31
0.0
210
0.0
220
0.0
230
1.0
 40
0.846774
 41
3.971588789196348
 42
4.218029533653088
  0
ELLIPSE
  5
D1
330
1F
100
AcDbEntity
  8
1
  6
Continuous
 62
     1
370
    13
100
AcDbEllipse
 10
120.176937
 20
206.383751
 30
0.0
 11
9.684031013946868E-15
 21
8.26666666672187
 31
0.0
210
0.0
220
0.0
230
1.0
 40
0.846774
 41
2.059778273190751
 42
2.311596517980637
  0
ELLIPSE
  5
D2
330
1F
100
AcDbEntity
  8
1
  6
Continuous
 62
     1
370
    13
100
AcDbEllipse
 10
120.176937
 20
207.690434
 30
0.0
 11
9.684031013882126E-15
 21
8.266666666666604
 31
0.0
210
0.0
220
0.0
230
1.0
 40
0.483871
 41
1.954961061630363
 42
2.730823840147566
  0
ELLIPSE
  5
D3
330
1F
100
AcDbEntity
  8
1
  6
Continuous
 62
     1
370
    13
100
AcDbEllipse
 10
266.583672
 20
198.804755
 30
0.0
 11
-2.700477754246541
 21
-1.306682784312843
 31
0.0
210
0.0
220
0.0
230
1.0
 40
0.707119
 41
3.086727065362636
 42
3.141592653589794
  0
ELLIPSE
  5
D4
330
1F
100
AcDbEntity
  8
1
  6
Continuous
 62
     1
370
    13
100
AcDbEllipse
 10
259.249159
 20
198.804755
 30
0.0
 11
-2.70047775424654
 21
1.306682784312843
 31
0.0
210
0.0
220
0.0
230
1.0
 40
0.707119
 41
0.0
 42
0.054865588226789
  0
ELLIPSE
  5
D5
330
1F
100
AcDbEntity
  8
1
  6
Continuous
 62
     1
370
    13
100
AcDbEllipse
 10
271.162144
 20
200.804755
 30
0.0
 11
0.0
 21
-2.0
 31
0.0
210
0.0
220
0.0
230
1.0
 40
0.999105
 41
5.123905826452177
 42
6.283185307179586
  0
ELLIPSE
  5
D6
330
1F
100
AcDbEntity
  8
1
  6
Continuous
 62
     1
370
    13
100
AcDbEllipse
 10
254.670686
 20
200.804755
 30
0.0
 11
0.0
 21
-2.0
 31
0.0
210
0.0
220
0.0
230
1.0
 40
0.999105
 41
0.0
 42
1.159279480727172
  0
ELLIPSE
  5
D7
330
1F
100
AcDbEntity
  8
1
  6
Continuous
 62
     1
370
    13
100
AcDbEllipse
 10
256.842508
 20
200.804755
 30
0.0
 11
0.0
 21
-2.0
 31
0.0
210
0.0
220
0.0
230
1.0
 40
0.674879
 41
0.0
 42
1.570796326794897
  0
ELLIPSE
  5
D8
330
1F
100
AcDbEntity
  8
1
  6
Continuous
 62
     1
370
    18
100
AcDbEllipse
 10
256.91644
 20
205.463229
 30
0.0
 11
-1.800318502831027
 21
0.8711218562085618
 31
0.0
210
0.0
220
0.0
230
1.0
 40
0.999999
 41
3.141593156240129
 42
3.590066908238942
  0
ELLIPSE
  5
D9
330
1F
100
AcDbEntity
  8
1
  6
Continuous
 62
     1
370
    18
100
AcDbEllipse
 10
268.916391
 20
205.463229
 30
0.0
 11
-1.800318502831027
 21
-0.871121856208562
 31
0.0
210
0.0
220
0.0
230
1.0
 40
0.999999
 41
5.834711052530572
 42
6.283184804529387
  0
ELLIPSE
  5
DA
330
1F
100
AcDbEntity
  8
1
  6
Continuous
 62
     1
370
    13
100
AcDbEllipse
 10
256.91648
 20
205.463334
 30
0.0
 11
-1.800318502831027
 21
0.8711218562085618
 31
0.0
210
0.0
220
0.0
230
1.0
 40
0.999996
 41
3.141592653589626
 42
3.596732008782754
  0
ELLIPSE
  5
DB
330
1F
100
AcDbEntity
  8
1
  6
Continuous
 62
     1
370
    13
100
AcDbEllipse
 10
268.916351
 20
205.463334
 30
0.0
 11
-1.800318502831027
 21
-0.871121856208562
 31
0.0
210
0.0
220
0.0
230
1.0
 40
0.999996
 41
5.828045951983021
 42
6.283185307176149
  0
ELLIPSE
  5
DC
330
1F
100
AcDbEntity
  8
1
  6
Continuous
 62
     1
370
    13
100
AcDbEllipse
 10
267.143962
 20
202.500671
 30
0.0
 11
-1.293819790941459
 21
1.52513289537935
 31
0.0
210
0.0
220
0.0
230
1.0
 40
0.375977
 41
0.3249723909634432
 42
1.262042852177514
  0
ELLIPSE
  5
DD
330
1F
100
AcDbEntity
  8
1
  6
Continuous
 62
     1
370
    13
100
AcDbEllipse
 10
258.688869
 20
202.500671
 30
0.0
 11
1.293819790941459
 21
1.525132895379351
 31
0.0
210
0.0
220
0.0
230
1.0
 40
0.375977
 41
5.02114245500208
 42
5.958212916216142
  0
ELLIPSE
  5
DE
330
1F
100
AcDbEntity
  8
1
  6
Continuous
 62
     1
370
    13
100
AcDbEllipse
 10
268.990323
 20
200.804755
 30
0.0
 11
0.0
 21
-2.0
 31
0.0
210
0.0
220
0.0
230
1.0
 40
0.674879
 41
4.712388980384691
 42
6.283185307179586
  0
ELLIPSE
  5
DF
330
1F
100
AcDbEntity
  8
1
  6
Continuous
 62
     1
370
    18
100
AcDbEllipse
 10
268.916373
 20
205.463289
 30
0.0
 11
1.80031850283105
 21
0.871121856208514
 31
0.0
210
0.0
220
0.0
230
1.0
 40
0.999998
 41
2.692378251824474
 42
3.141493159768744
  0
ELLIPSE
  5
E0
330
1F
100
AcDbEntity
  8
1
  6
Continuous
 62
     1
370
    13
100
AcDbEllipse
 10
121.774194
 20
47.979311
 30
0.0
 11
-1.197942914783525
 21
2.750442286782246
 31
0.0
210
0.0
220
0.0
230
1.0
 40
0.636497
 41
2.541491845128467
 42
2.596357433355256
  0
ELLIPSE
  5
E1
330
1F
100
AcDbEntity
  8
1
  6
Continuous
 62
     1
370
    13
100
AcDbEllipse
 10
121.774194
 20
55.313824
 30
0.0
 11
1.197942914783614
 21
2.750442286782208
 31
0.0
210
0.0
220
0.0
230
1.0
 40
0.636497
 41
0.5452352202341867
 42
0.6001008084613455
  0
ELLIPSE
  5
E2
330
1F
100
AcDbEntity
  8
1
  6
Continuous
 62
     1
370
    13
100
AcDbEllipse
 10
118.57968
 20
55.313824
 30
0.0
 11
1.197942914783522
 21
-2.750442286782248
 31
0.0
210
0.0
220
0.0
230
1.0
 40
0.636497
 41
2.541491845128468
 42
2.596357433355257
  0
ELLIPSE
  5
E3
330
1F
100
AcDbEntity
  8
1
  6
Continuous
 62
     1
370
    13
100
AcDbEllipse
 10
118.57968
 20
47.979311
 30
0.0
 11
-1.197942914783614
 21
-2.750442286782207
 31
0.0
210
0.0
220
0.0
230
1.0
 40
0.636497
 41
0.5452352202341886
 42
0.600100808461346
  0
ELLIPSE
  5
E4
330
1F
100
AcDbEntity
  8
1
  6
Continuous
 62
     1
370
    13
100
AcDbEllipse
 10
116.46849
 20
57.646504
 30
0.0
 11
0.002313484577361955
 21
-1.99999866194683
 31
0.0
210
0.0
220
0.0
230
1.0
 40
0.002391
 41
5.83252259844597
 42
6.287661953639001
  0
ELLIPSE
  5
E5
330
1F
100
AcDbEntity
  8
1
  6
Continuous
 62
     1
370
    13
100
AcDbEllipse
 10
123.885364
 20
57.646543
 30
0.0
 11
0.001095742263591508
 21
-1.999999699837201
 31
0.0
210
0.0
220
0.0
230
1.0
 40
0.001132
 41
5.832523670930733
 42
6.279470671428117
  0
ELLIPSE
  5
E6
330
1F
100
AcDbEntity
  8
1
  6
Continuous
 62
     1
370
    13
100
AcDbEllipse
 10
116.46849
 20
45.646632
 30
0.0
 11
-0.002313484577363862
 21
-1.99999866194683
 31
0.0
210
0.0
220
0.0
230
1.0
 40
0.002391
 41
3.137116007130342
 42
3.592255362323384
  0
ELLIPSE
  5
E7
330
1F
100
AcDbEntity
  8
1
  6
Continuous
 62
     1
370
    13
100
AcDbEllipse
 10
123.885364
 20
45.646593
 30
0.0
 11
-0.001095742263591509
 21
-1.999999699837201
 31
0.0
210
0.0
220
0.0
230
1.0
 40
0.001132
 41
3.145307289351867
 42
3.592254289838773
  0
SPLINE
  5
E8
330
1F
100
AcDbEntity
  8
1
  6
Continuous
 62
     1
370
    13
100
AcDbSpline
210
0.0
220
0.0
230
1.0
 70
     8
 71
     3
 72
     8
 73
     4
 74
     0
 42
0.000000001
 43
0.0000000001
 40
0.0
 40
0.0
 40
0.0
 40
0.0
 40
1.0
 40
1.0
 40
1.0
 40
1.0
 10
121.5751591574306
 20
199.9336328086336
 30
0.0
 10
121.6417696170031
 20
199.9926430855759
 30
0.0
 10
121.708090039052
 20
200.0519352186081
 30
0.0
 10
121.774194265089
 20
200.1114374491538
 30
0.0
  0
SPLINE
  5
E9
330
1F
100
AcDbEntity
  8
1
  6
Continuous
 62
     1
370
    13
100
AcDbSpline
210
0.0
220
0.0
230
1.0
 70
     8
 71
     3
 72
     8
 73
     4
 74
     0
 42
0.000000001
 43
0.0000000001
 40
0.0
 40
0.0
 40
0.0
 40
0.0
 40
1.0
 40
1.0
 40
1.0
 40
1.0
 10
118.5796798256673
 20
200.111437449155
 30
0.0
 10
118.6457840517007
 20
200.0519352186124
 30
0.0
 10
118.712104473746
 20
199.9926430855834
 30
0.0
 10
118.778714933315
 20
199.9336328086443
 30
0.0
  0
SPLINE
  5
EA
330
1F
100
AcDbEntity
  8
1
  6
Continuous
 62
     1
370
    13
100
AcDbSpline
210
0.0
220
0.0
230
1.0
 70
     8
 71
     3
 72
     8
 73
     4
 74
     0
 42
0.000000001
 43
0.0000000001
 40
0.0
 40
0.0
 40
0.0
 40
0.0
 40
1.0
 40
1.0
 40
1.0
 40
1.0
 10
121.5751591574492
 20
199.9336328086378
 30
0.0
 10
121.6805160633842
 20
199.9572450425827
 30
0.0
 10
121.7856362510288
 20
199.9809445860449
 30
0.0
 10
121.8905213172565
 20
200.0047546648417
 30
0.0
  0
SPLINE
  5
EB
330
1F
100
AcDbEntity
  8
1
  6
Continuous
 62
     1
370
    13
100
AcDbSpline
210
0.0
220
0.0
230
1.0
 70
     8
 71
     3
 72
     8
 73
     4
 74
     0
 42
0.000000001
 43
0.0000000001
 40
0.0
 40
0.0
 40
0.0
 40
0.0
 40
1.0
 40
1.0
 40
1.0
 40
1.0
 10
118.463352773499
 20
200.0047546648422
 30
0.0
 10
118.5682378397351
 20
199.9809445860435
 30
0.0
 10
118.6733580273655
 20
199.9572450425863
 30
0.0
 10
118.7787149333089
 20
199.9336328086395
 30
0.0
  0
SPLINE
  5
EC
330
1F
100
AcDbEntity
  8
1
  6
Continuous
 62
     1
370
    13
100
AcDbSpline
210
0.0
220
0.0
230
1.0
 70
     8
 71
     3
 72
    29
 73
    25
 74
     0
 42
0.000000001
 43
0.0000000001
 40
0.0
 40
0.0
 40
0.0
 40
0.0
 40
0.1250000000000001
 40
0.1250000000000001
 40
0.2500000000000001
 40
0.2500000000000001
 40
0.3750000000000002
 40
0.3750000000000002
 40
0.4375
 40
0.4687499999999999
 40
0.4687499999999999
 40
0.4999999999999997
 40
0.4999999999999997
 40
0.6249999999999994
 40
0.6249999999999994
 40
0.7499999999999993
 40
0.7499999999999993
 40
0.8749999999999991
 40
0.8749999999999991
 40
0.9062499999999994
 40
0.9062499999999994
 40
0.9374999999999997
 40
0.9374999999999997
 40
1.0
 40
1.0
 40
1.0
 40
1.0
 10
121.8905213172565
 20
200.0047546648417
 30
0.0
 10
122.0529890260218
 20
200.0399236402836
 30
0.0
 10
122.2142483449824
 20
200.0749572913276
 30
0.0
 10
122.5338666228533
 20
200.1443116062749
 30
0.0
 10
122.6922241483767
 20
200.1786538494227
 30
0.0
 10
123.005609407241
 20
200.2467785594098
 30
0.0
 10
123.1606389992039
 20
200.2805673769483
 30
0.0
 10
123.390398394398
 20
200.3310477877315
 30
0.0
 10
123.5045820367358
 20
200.3562383475108
 30
0.0
 10
123.6176656552512
 20
200.3814001911401
 30
0.0
 10
123.6928037006755
 20
200.3981737807121
 30
0.0
 10
123.730272904821
 20
200.4065659142101
 30
0.0
 10
123.9161192264289
 20
200.4483449229365
 30
0.0
 10
124.0606264670916
 20
200.4813267827772
 30
0.0
 10
124.3411448395187
 20
200.5467372186274
 30
0.0
 10
124.4771585559075
 20
200.5791653733862
 30
0.0
 10
124.7403966494925
 20
200.6437775395839
 30
0.0
 10
124.8676239313281
 20
200.6759608170032
 30
0.0
 10
125.0208430234196
 20
200.7162290172471
 30
0.0
 10
125.0511954209048
 20
200.7242846406021
 30
0.0
 10
125.11130632157
 20
200.7404048400623
 30
0.0
 10
125.1410889407043
 20
200.748476060183
 30
0.0
 10
125.2293266009095
 20
200.7726555954694
 30
0.0
 10
125.286647294627
 20
200.7887222736741
 30
0.0
 10
125.3424383872135
 20
200.8047546648422
 30
0.0
  0
SPLINE
  5
ED
330
1F
100
AcDbEntity
  8
1
  6
Continuous
 62
     1
370
    13
100
AcDbSpline
210
0.0
220
0.0
230
1.0
 70
     8
 71
     3
 72
    33
 73
    29
 74
     0
 42
0.000000001
 43
0.0000000001
 40
0.0
 40
0.0
 40
0.0
 40
0.0
 40
0.1232553421099912
 40
0.1232553421099912
 40
0.1858799605307064
 40
0.1858799605307064
 40
0.2171922697410639
 40
0.2171922697410639
 40
0.2485045789514214
 40
0.2485045789514214
 40
0.2798168881617791
 40
0.2798168881617791
 40
0.3111291973721366
 40
0.3737538157928513
 40
0.3737538157928513
 40
0.4990030526342812
 40
0.4990030526342812
 40
0.6242522894757113
 40
0.6242522894757113
 40
0.6555645986860689
 40
0.6555645986860689
 40
0.6868769078964263
 40
0.6868769078964263
 40
0.7495015263171408
 40
0.7495015263171408
 40
0.8747507631585705
 40
0.8747507631585705
 40
1.0
 40
1.0
 40
1.0
 40
1.0
 10
127.1769368369425
 20
200.9915987021844
 30
0.0
 10
127.1768981181965
 20
200.9916572937822
 30
0.0
 10
127.1715381626665
 20
200.9998264673646
 30
0.0
 10
127.1554593376034
 20
201.024484067343
 30
0.0
 10
127.1486723668247
 20
201.0349085580822
 30
0.0
 10
127.1364302421528
 20
201.0537831106637
 30
0.0
 10
127.1320035455415
 20
201.0606182069922
 30
0.0
 10
127.1225037634535
 20
201.0753163610192
 30
0.0
 10
127.1174268113803
 20
201.0831853689943
 30
0.0
 10
127.1066288935084
 20
201.0999603576326
 30
0.0
 10
127.1009056044548
 20
201.108870024618
 30
0.0
 10
127.0888825430667
 20
201.1276352715036
 30
0.0
 10
127.0699654938526
 20
201.157229807429
 30
0.0
 10
127.0484945560607
 20
201.1910834570455
 30
0.0
 10
127.002374181007
 20
201.2643157770235
 30
0.0
 10
126.967393313738
 20
201.3204867590276
 30
0.0
 10
126.8900327840431
 20
201.4471705808797
 30
0.0
 10
126.8476497878972
 20
201.517685133566
 30
0.0
 10
126.790653403334
 20
201.6149069805056
 30
0.0
 10
126.7790531544033
 20
201.6348065469808
 30
0.0
 10
126.7554658095631
 20
201.6755239773691
 30
0.0
 10
126.7434714260981
 20
201.6963549905247
 30
0.0
 10
126.7071382625011
 20
201.7598752517421
 30
0.0
 10
126.6823863904968
 20
201.8036994241095
 30
0.0
 10
126.606800858453
 20
201.9395229565679
 30
0.0
 10
126.5546384064349
 20
202.0358612560835
 30
0.0
 10
126.4480874467486
 20
202.2400044874316
 30
0.0
 10
126.3936958718237
 20
202.3478105830788
 30
0.0
 10
126.3388467319193
 20
202.4614833223753
 30
0.0
  0
SPLINE
  5
EE
330
1F
100
AcDbEntity
  8
1
  6
Continuous
 62
     1
370
    13
100
AcDbSpline
210
0.0
220
0.0
230
1.0
 70
     8
 71
     3
 72
    32
 73
    28
 74
     0
 42
0.000000001
 43
0.0000000001
 40
0.0
 40
0.0
 40
0.0
 40
0.0
 40
0.1248564308453784
 40
0.1248564308453784
 40
0.2497128616907569
 40
0.2497128616907569
 40
0.3745692925361354
 40
0.3745692925361354
 40
0.4369975079588244
 40
0.4369975079588244
 40
0.4682116156701688
 40
0.4682116156701688
 40
0.4994257233815134
 40
0.4994257233815134
 40
0.6242821542268926
 40
0.6242821542268926
 40
0.7491385850722718
 40
0.7491385850722718
 40
0.8115668004949614
 40
0.8115668004949614
 40
0.8427809082063061
 40
0.8427809082063061
 40
0.8739950159176508
 40
0.8739950159176508
 40
0.9988514467630295
 40
0.9988514467630295
 40
1.0
 40
1.0
 40
1.0
 40
1.0
 10
113.997256379693
 20
202.5006714947917
 30
0.0
 10
113.9432185779757
 20
202.3898994021272
 30
0.0
 10
113.8898421554124
 20
202.2851305853481
 30
0.0
 10
113.7856436892426
 20
202.0871952912186
 30
0.0
 10
113.7348188782895
 20
201.9940284663875
 30
0.0
 10
113.6369237285883
 20
201.8192566862578
 30
0.0
 10
113.5898500776264
 20
201.7376494994963
 30
0.0
 10
113.5230027258651
 20
201.624178353293
 30
0.0
 10
113.5013482520567
 20
201.5878478857304
 30
0.0
 10
113.4699387784561
 20
201.5356601034176
 30
0.0
 10
113.4596547737505
 20
201.5186610587497
 30
0.0
 10
113.4396049229196
 20
201.4856718946728
 30
0.0
 10
113.4298208581507
 20
201.4696514365678
 30
0.0
 10
113.3821319248807
 20
201.3918982271692
 30
0.0
 10
113.3479187182391
 20
201.337191676819
 30
0.0
 10
113.2880922454449
 20
201.2425591388391
 30
0.0
 10
113.2624763474827
 20
201.202631831195
 30
0.0
 10
113.2311223260331
 20
201.1540795356862
 30
0.0
 10
113.221850364148
 20
201.1397896069864
 30
0.0
 10
113.209802220102
 20
201.1212713127371
 30
0.0
 10
113.206096243866
 20
201.1155849711245
 30
0.0
 10
113.1993209804131
 20
201.105201837666
 30
0.0
 10
113.1962479786031
 20
201.1004993667601
 30
0.0
 10
113.1825616618176
 20
201.0795757234692
 30
0.0
 10
113.177078212641
 20
201.0712465231185
 30
0.0
 10
113.1769384119487
 20
201.0710337183281
 30
0.0
 10
113.176937862718
 20
201.0710328825362
 30
0.0
 10
113.1769373155056
 20
201.0710320454234
 30
0.0
  0
SPLINE
  5
EF
330
1F
100
AcDbEntity
  8
1
  6
Continuous
 62
     1
370
    13
100
AcDbSpline
210
0.0
220
0.0
230
1.0
 70
     8
 71
     3
 72
    31
 73
    27
 74
     0
 42
0.000000001
 43
0.0000000001
 40
0.0
 40
0.0
 40
0.0
 40
0.0
 40
0.000683910047625
 40
0.000683910047625
 40
0.1255984212916736
 40
0.1255984212916736
 40
0.1568270491026859
 40
0.1568270491026859
 40
0.1880556769136976
 40
0.2505129325357216
 40
0.2505129325357216
 40
0.3754274437797696
 40
0.3754274437797696
 40
0.5003419550238173
 40
0.5003419550238173
 40
0.5627992106458408
 40
0.5627992106458408
 40
0.5940278384568524
 40
0.5940278384568524
 40
0.6252564662678639
 40
0.6252564662678639
 40
0.7501709775119094
 40
0.7501709775119094
 40
0.8750854887559547
 40
0.8750854887559547
 40
1.0
 40
1.0
 40
1.0
 40
1.0
 10
112.042054747445
 20
202.8742440012709
 30
0.0
 10
112.0420533425806
 20
202.8742426102212
 30
0.0
 10
112.0420547761254
 20
202.8742440381095
 30
0.0
 10
112.0420966765713
 20
202.8742858770827
 30
0.0
 10
112.0469307180466
 20
202.8791015503805
 30
0.0
 10
112.059116872333
 20
202.891325787046
 30
0.0
 10
112.0618630395418
 20
202.8940833267483
 30
0.0
 10
112.0679327792807
 20
202.9001878923418
 30
0.0
 10
112.0779140159222
 20
202.910239755783
 30
0.0
 10
112.0904745001619
 20
202.9229495162173
 30
0.0
 10
112.1189122228215
 20
202.9518749586203
 30
0.0
 10
112.1422904270248
 20
202.9758217150461
 30
0.0
 10
112.1973183725931
 20
203.0331212362597
 30
0.0
 10
112.2289701030929
 20
203.0664729148255
 30
0.0
 10
112.2822737709357
 20
203.1238991851812
 30
0.0
 10
112.3010129663742
 20
203.144277453534
 30
0.0
 10
112.3305316510157
 20
203.1767727196064
 30
0.0
 10
112.340588469029
 20
203.1879066984373
 30
0.0
 10
112.3610508297471
 20
203.2107051073053
 30
0.0
 10
112.3714665277559
 20
203.2223806990496
 30
0.0
 10
112.4244223619273
 20
203.2821446942975
 30
0.0
 10
112.4695946916137
 20
203.3343756697403
 30
0.0
 10
112.5644094190906
 20
203.4480286464363
 30
0.0
 10
112.6140560618916
 20
203.509448223577
 30
0.0
 10
112.7166083218826
 20
203.6422556116684
 30
0.0
 10
112.769519543825
 20
203.7136376919108
 30
0.0
 10
112.8233463675148
 20
203.7906642703266
 30
0.0
  0
SPLINE
  5
F0
330
1F
100
AcDbEntity
  8
1
  6
Continuous
 62
     1
370
    13
100
AcDbSpline
210
0.0
220
0.0
230
1.0
 70
     8
 71
     3
 72
    29
 73
    25
 74
     0
 42
0.000000001
 43
0.0000000001
 40
0.0
 40
0.0
 40
0.0
 40
0.0
 40
0.1250415452697442
 40
0.1250415452697442
 40
0.2500830905394884
 40
0.2500830905394884
 40
0.3126038631743603
 40
0.3126038631743603
 40
0.3438642494917958
 40
0.3438642494917958
 40
0.3751246358092312
 40
0.3751246358092312
 40
0.5001661810789743
 40
0.5001661810789743
 40
0.6252077263487174
 40
0.6252077263487174
 40
0.6877284989835889
 40
0.7189888853010244
 40
0.7189888853010244
 40
0.75024927161846
 40
0.75024927161846
 40
0.8752908168882031
 40
0.8752908168882031
 40
1.0
 40
1.0
 40
1.0
 40
1.0
 10
127.5262366856608
 20
203.7442204717892
 30
0.0
 10
127.5811296083025
 20
203.6651661682835
 30
0.0
 10
127.6352941407846
 20
203.5917294399229
 30
0.0
 10
127.7406008083376
 20
203.4548439540429
 30
0.0
 10
127.7917488863667
 20
203.3914003172913
 30
0.0
 10
127.8651974196486
 20
203.3032098182601
 30
0.0
 10
127.8891357616332
 20
203.2749792642048
 30
0.0
 10
127.924104796659
 20
203.2343493175012
 30
0.0
 10
127.9355888108824
 20
203.2211108767981
 30
0.0
 10
127.958124419777
 20
203.1953151431364
 30
0.0
 10
127.969187160507
 20
203.18274488465
 30
0.0
 10
128.023445100771
 20
203.1214965993304
 30
0.0
 10
128.0634720653123
 20
203.0776098318957
 30
0.0
 10
128.1360159179026
 20
202.9994621092096
 30
0.0
 10
128.1685356915528
 20
202.9652028476207
 30
0.0
 10
128.2111041295283
 20
202.9209007589514
 30
0.0
 10
128.2308348414334
 20
202.9005260414038
 30
0.0
 10
128.2481155118188
 20
202.8828327228076
 30
0.0
 10
128.259077127657
 20
202.8716379379456
 30
0.0
 10
128.2642773605707
 20
202.8663420642634
 30
0.0
 10
128.2887074803329
 20
202.8415175744254
 30
0.0
 10
128.3033661483785
 20
202.8267960128905
 30
0.0
 10
128.3228913132966
 20
202.8072294599409
 30
0.0
 10
128.3277840898151
 20
202.8023594508749
 30
0.0
 10
128.32776834003
 20
202.8023752218599
 30
0.0
  0
SPLINE
  5
F1
330
1F
100
AcDbEntity
  8
1
  6
Continuous
 62
     1
370
    13
100
AcDbSpline
210
0.0
220
0.0
230
1.0
 70
     8
 71
     3
 72
    18
 73
    14
 74
     0
 42
0.000000001
 43
0.0000000001
 40
0.0
 40
0.0
 40
0.0
 40
0.0
 40
0.2500000000000001
 40
0.2500000000000001
 40
0.3750000000000002
 40
0.3750000000000002
 40
0.5000000000000002
 40
0.5000000000000002
 40
0.6250000000000002
 40
0.6250000000000002
 40
0.7500000000000002
 40
0.7500000000000002
 40
1.0
 40
1.0
 40
1.0
 40
1.0
 10
116.4708247071678
 20
205.4722873637277
 30
0.0
 10
117.087673540434
 20
205.4200295458019
 30
0.0
 10
117.7052253828852
 20
205.3878212173689
 30
0.0
 10
118.6322184683115
 20
205.3580390751394
 30
0.0
 10
118.9413264164058
 20
205.351181471624
 30
0.0
 10
119.5597102894578
 20
205.3420490650309
 30
0.0
 10
119.8689863585878
 20
205.3397585905352
 30
0.0
 10
120.4876799533112
 20
205.3390546000145
 30
0.0
 10
120.7969618247557
 20
205.3406396196165
 30
0.0
 10
121.4153813868718
 20
205.3481603223417
 30
0.0
 10
121.724518655397
 20
205.3541099995361
 30
0.0
 10
122.6516480893406
 20
205.3806827176782
 30
0.0
 10
123.2693564352992
 20
205.4100767763362
 30
0.0
 10
123.8864552430034
 20
205.4588569550786
 30
0.0
  0
SPLINE
  5
F2
330
1F
100
AcDbEntity
  8
1
  6
Continuous
 62
     1
370
    13
100
AcDbSpline
210
0.0
220
0.0
230
1.0
 70
     8
 71
     3
 72
    39
 73
    35
 74
     0
 42
0.000000001
 43
0.0000000001
 40
0.0
 40
0.0
 40
0.0
 40
0.0
 40
0.0624999999999968
 40
0.0624999999999968
 40
0.1249999999999937
 40
0.1249999999999937
 40
0.2499999999999877
 40
0.2499999999999877
 40
0.2656249999999878
 40
0.2656249999999878
 40
0.281249999999988
 40
0.3124999999999872
 40
0.3749999999999856
 40
0.3749999999999856
 40
0.4999999999999835
 40
0.4999999999999835
 40
0.5312499999999831
 40
0.5312499999999831
 40
0.5468749999999829
 40
0.5468749999999829
 40
0.5624999999999826
 40
0.6249999999999848
 40
0.6249999999999848
 40
0.7499999999999897
 40
0.7499999999999897
 40
0.781249999999991
 40
0.781249999999991
 40
0.8124999999999922
 40
0.8124999999999922
 40
0.8749999999999949
 40
0.8749999999999949
 40
0.9374999999999974
 40
0.9374999999999974
 40
1.0
 40
1.0
 40
1.0
 40
1.0
 10
112.8233463675148
 20
203.7906642703266
 30
0.0
 10
112.8616770751794
 20
203.8455157933641
 30
0.0
 10
112.9035288942749
 20
203.9002337364514
 30
0.0
 10
112.9938834743082
 20
204.0093307384793
 30
0.0
 10
113.0423876575142
 20
204.0637099092714
 30
0.0
 10
113.1975693383359
 20
204.2261666767853
 30
0.0
 10
113.3138486103736
 20
204.3335960395969
 30
0.0
 10
113.4591579658848
 20
204.4525871170307
 30
0.0
 10
113.475529053926
 20
204.465799781484
 30
0.0
 10
113.508555262634
 20
204.4920692666643
 30
0.0
 10
113.558494538813
 20
204.5312207477877
 30
0.0
 10
113.6777767445209
 20
204.6207967377194
 30
0.0
 10
113.7846181625149
 20
204.6944885719039
 30
0.0
 10
114.0042401085411
 20
204.8375161841364
 30
0.0
 10
114.1585303319464
 20
204.9271188716532
 30
0.0
 10
114.3612979106767
 20
205.0303374875768
 30
0.0
 10
114.4023501499123
 20
205.0505373102905
 30
0.0
 10
114.4646883308321
 20
205.0801259915077
 30
0.0
 10
114.4856131242573
 20
205.0898786475902
 30
0.0
 10
114.5275676026219
 20
205.1090701570443
 30
0.0
 10
114.6327753254782
 20
205.1562927091781
 30
0.0
 10
114.7395844154715
 20
205.1997011714388
 30
0.0
 10
114.9990400045058
 20
205.2960729937748
 30
0.0
 10
115.1761422837309
 20
205.3499687410023
 30
0.0
 10
115.4031494063631
 20
205.4018342154616
 30
0.0
 10
115.4488338477228
 20
205.4114275230195
 30
0.0
 10
115.5407860342592
 20
205.4289737385557
 30
0.0
 10
115.5870865205881
 20
205.4369280576399
 30
0.0
 10
115.7258809016532
 20
205.4580693185827
 30
0.0
 10
115.8185853025767
 20
205.4685988679195
 30
0.0
 10
116.0043438501593
 20
205.4823225489449
 30
0.0
 10
116.097398097787
 20
205.4855142318462
 30
0.0
 10
116.2838534240608
 20
205.4844610746498
 30
0.0
 10
116.3772545767222
 20
205.4802143801634
 30
0.0
 10
116.4708247071679
 20
205.4722873637269
 30
0.0
  0
SPLINE
  5
F3
330
1F
100
AcDbEntity
  8
1
  6
Continuous
 62
     1
370
    13
100
AcDbSpline
210
0.0
220
0.0
230
1.0
 70
     8
 71
     3
 72
    40
 73
    36
 74
     0
 42
0.000000001
 43
0.0000000001
 40
0.0
 40
0.0
 40
0.0
 40
0.0
 40
0.062500000000001
 40
0.062500000000001
 40
0.1250000000000022
 40
0.1250000000000022
 40
0.1875000000000035
 40
0.1875000000000035
 40
0.2187500000000042
 40
0.2187500000000042
 40
0.2500000000000049
 40
0.2500000000000049
 40
0.3750000000000087
 40
0.3750000000000087
 40
0.4375000000000102
 40
0.4375000000000102
 40
0.4687500000000105
 40
0.4687500000000105
 40
0.5000000000000108
 40
0.5000000000000108
 40
0.6250000000000123
 40
0.6250000000000123
 40
0.6875000000000129
 40
0.6875000000000129
 40
0.7031250000000129
 40
0.7031250000000129
 40
0.7187500000000129
 40
0.7187500000000129
 40
0.7500000000000118
 40
0.7500000000000118
 40
0.8750000000000059
 40
0.8750000000000059
 40
0.937500000000003
 40
0.937500000000003
 40
1.0
 40
1.0
 40
1.0
 40
1.0
 10
123.8864552430034
 20
205.4588569550806
 30
0.0
 10
123.9798092117248
 20
205.4662363621118
 30
0.0
 10
124.0729701244032
 20
205.4698989610705
 30
0.0
 10
124.258897925439
 20
205.4697202274493
 30
0.0
 10
124.3516649063955
 20
205.4658808594373
 30
0.0
 10
124.5368048564571
 20
205.4508145456064
 30
0.0
 10
124.6291779494456
 20
205.4395901735082
 30
0.0
 10
124.7674454586819
 20
205.4173860590571
 30
0.0
 10
124.8135594844693
 20
205.4090741175156
 30
0.0
 10
124.9050921021835
 20
205.3908221468239
 30
0.0
 10
124.9505604918136
 20
205.380877236378
 30
0.0
 10
125.1764612043903
 20
205.327266324249
 30
0.0
 10
125.3525962840709
 20
205.2720177796548
 30
0.0
 10
125.6105571698535
 20
205.1737567373327
 30
0.0
 10
125.695498555527
 20
205.1384228777864
 30
0.0
 10
125.8213695816096
 20
205.0817999948537
 30
0.0
 10
125.8631175623151
 20
205.0622975052143
 30
0.0
 10
125.9458828847439
 20
205.0222169105552
 30
0.0
 10
125.9867767257753
 20
205.0017004941635
 30
0.0
 10
126.1888390470714
 20
204.8968830036983
 30
0.0
 10
126.3428423992017
 20
204.8059501930897
 30
0.0
 10
126.5624165133158
 20
204.6607503403298
 30
0.0
 10
126.6336919801992
 20
204.6108689055538
 30
0.0
 10
126.7203078929961
 20
204.5467542491852
 30
0.0
 10
126.7375069016976
 20
204.533842931589
 30
0.0
 10
126.7716534266109
 20
204.5078447751356
 30
0.0
 10
126.7886159878289
 20
204.4947458359686
 30
0.0
 10
126.8389021889303
 20
204.4553603181716
 30
0.0
 10
126.8716834462064
 20
204.4289417256768
 30
0.0
 10
127.0318952536669
 20
204.2961213812382
 30
0.0
 10
127.1483254724396
 20
204.1875772989756
 30
0.0
 10
127.3047736947709
 20
204.0223466941808
 30
0.0
 10
127.3538794642863
 20
203.9668533951191
 30
0.0
 10
127.4456465489076
 20
203.8551562441607
 30
0.0
 10
127.4878212657753
 20
203.7995446213664
 30
0.0
 10
127.5262366856611
 20
203.7442204717894
 30
0.0
  0
SPLINE
  5
F4
330
1F
100
AcDbEntity
  8
1
  6
Continuous
 62
     1
370
    13
100
AcDbSpline
210
0.0
220
0.0
230
1.0
 70
     8
 71
     3
 72
    20
 73
    16
 74
     0
 42
0.000000001
 43
0.0000000001
 40
0.0
 40
0.0
 40
0.0
 40
0.0
 40
0.25
 40
0.25
 40
0.375
 40
0.375
 40
0.5
 40
0.5
 40
0.625
 40
0.625
 40
0.75
 40
0.75
 40
0.875
 40
0.875
 40
1.0
 40
1.0
 40
1.0
 40
1.0
 10
123.8853644581596
 20
204.5921110964408
 30
0.0
 10
123.2672083338775
 20
204.5928110143298
 30
0.0
 10
122.6492213154301
 20
204.6052246839972
 30
0.0
 10
121.7222126640136
 20
204.6218970914883
 30
0.0
 10
121.4132043676637
 20
204.6270796404021
 30
0.0
 10
120.7951391711861
 20
204.6340780147214
 30
0.0
 10
120.4860818316345
 20
204.6358639516787
 30
0.0
 10
119.8679048157505
 20
204.6351156342523
 30
0.0
 10
119.5588473653532
 20
204.6325849798904
 30
0.0
 10
118.9407763529675
 20
204.6244762582511
 30
0.0
 10
118.6317623123889
 20
204.6189314221149
 30
0.0
 10
118.0137365337822
 20
204.6076818711425
 30
0.0
 10
117.7047243153788
 20
204.602010511394
 30
0.0
 10
117.0866533602858
 20
204.5938978116116
 30
0.0
 10
116.7775943808891
 20
204.5914733240581
 30
0.0
 10
116.4684898421703
 20
204.5922122700883
 30
0.0
  0
SPLINE
  5
F5
330
1F
100
AcDbEntity
  8
1
  6
Continuous
 62
     1
370
    13
100
AcDbSpline
210
0.0
220
0.0
230
1.0
 70
     8
 71
     3
 72
    43
 73
    39
 74
     0
 42
0.000000001
 43
0.0000000001
 40
0.0
 40
0.0
 40
0.0
 40
0.0
 40
0.1250000000000021
 40
0.1250000000000021
 40
0.2500000000000042
 40
0.2500000000000042
 40
0.3125000000000058
 40
0.3125000000000058
 40
0.3437500000000067
 40
0.3437500000000067
 40
0.3750000000000074
 40
0.3750000000000074
 40
0.5000000000000089
 40
0.5000000000000089
 40
0.562500000000009
 40
0.562500000000009
 40
0.5937500000000087
 40
0.5937500000000087
 40
0.6250000000000083
 40
0.6250000000000083
 40
0.6875000000000072
 40
0.6875000000000072
 40
0.7500000000000062
 40
0.7500000000000062
 40
0.8125000000000051
 40
0.8125000000000051
 40
0.8281250000000049
 40
0.8281250000000049
 40
0.8437500000000046
 40
0.8437500000000046
 40
0.8750000000000041
 40
0.8750000000000041
 40
0.9375000000000024
 40
0.9375000000000024
 40
0.9531250000000019
 40
0.9531250000000019
 40
0.9687500000000012
 40
1.0
 40
1.0
 40
1.0
 40
1.0
 10
126.3388467319193
 20
202.4614833223753
 30
0.0
 10
126.2854801241062
 20
202.5618166128014
 30
0.0
 10
126.2251104931215
 20
202.6644543462375
 30
0.0
 10
126.0917096659528
 20
202.8738411992905
 30
0.0
 10
126.0186731314532
 20
202.9805983152046
 30
0.0
 10
125.8997747643813
 20
203.1433634831988
 30
0.0
 10
125.8585765702482
 20
203.198055206272
 30
0.0
 10
125.7943698220335
 20
203.2806622922907
 30
0.0
 10
125.7725394334666
 20
203.3083236168303
 30
0.0
 10
125.7283791606987
 20
203.3634196088392
 30
0.0
 10
125.7060152406242
 20
203.3908990922407
 30
0.0
 10
125.5927670387219
 20
203.5279091853812
 30
0.0
 10
125.4976626860692
 20
203.6363318003513
 30
0.0
 10
125.34733900828
 20
203.7957649064493
 30
0.0
 10
125.2959412675167
 20
203.8483661621503
 30
0.0
 10
125.216640165992
 20
203.9261365759162
 30
0.0
 10
125.1898176370516
 20
203.9518889949339
 30
0.0
 10
125.1354567742334
 20
204.0028609557029
 30
0.0
 10
125.1079991429298
 20
204.0280056400701
 30
0.0
 10
125.0247150020082
 20
204.1022957622258
 30
0.0
 10
124.9679862423927
 20
204.1503100042949
 30
0.0
 10
124.8515129920898
 20
204.2424209743492
 30
0.0
 10
124.7917748681338
 20
204.2865268363282
 30
0.0
 10
124.6683262372226
 20
204.3694277723941
 30
0.0
 10
124.6046288416242
 20
204.4082415874111
 30
0.0
 10
124.5215305013589
 20
204.4520047286897
 30
0.0
 10
124.5047347968058
 20
204.4605165042527
 30
0.0
 10
124.4707557963802
 20
204.4770072588204
 30
0.0
 10
124.4535382355332
 20
204.4850005554112
 30
0.0
 10
124.4016250658725
 20
204.5079289246803
 30
0.0
 10
124.3666095420169
 20
204.5218493520553
 30
0.0
 10
124.2601660258285
 20
204.5589129955959
 30
0.0
 10
124.1873503136368
 20
204.5773898045131
 30
0.0
 10
124.0932874963093
 20
204.5902226633067
 30
0.0
 10
124.0743642887519
 20
204.5922648006443
 30
0.0
 10
124.0365924051778
 20
204.5952378398756
 30
0.0
 10
123.9799183823187
 20
204.5980504534672
 30
0.0
 10
123.9231975886507
 20
204.5958437886408
 30
0.0
 10
123.8853644581596
 20
204.5921110964408
 30
0.0
  0
SPLINE
  5
F6
330
1F
100
AcDbEntity
  8
1
  6
Continuous
 62
     1
370
    13
100
AcDbSpline
210
0.0
220
0.0
230
1.0
 70
     8
 71
     3
 72
    44
 73
    40
 74
     0
 42
0.000000001
 43
0.0000000001
 40
0.0
 40
0.0
 40
0.0
 40
0.0
 40
0.0625000000000008
 40
0.0625000000000008
 40
0.0937500000000017
 40
0.0937500000000017
 40
0.1250000000000026
 40
0.1250000000000026
 40
0.1562500000000034
 40
0.1562500000000034
 40
0.1718750000000032
 40
0.1718750000000032
 40
0.1875000000000031
 40
0.1875000000000031
 40
0.250000000000003
 40
0.250000000000003
 40
0.3125000000000029
 40
0.3125000000000029
 40
0.3750000000000029
 40
0.3750000000000029
 40
0.4375000000000028
 40
0.4375000000000028
 40
0.5000000000000028
 40
0.5000000000000028
 40
0.6250000000000039
 40
0.6250000000000039
 40
0.6875000000000041
 40
0.6875000000000041
 40
0.7187500000000036
 40
0.7187500000000036
 40
0.750000000000003
 40
0.750000000000003
 40
0.8750000000000011
 40
0.8750000000000011
 40
0.9375000000000006
 40
0.9375000000000006
 40
0.9687500000000003
 40
0.9687500000000003
 40
1.0
 40
1.0
 40
1.0
 40
1.0
 10
116.4684898421703
 20
204.5922122700883
 30
0.0
 10
116.3930496581506
 20
204.6000807268763
 30
0.0
 10
116.3183780853709
 20
204.5990553223854
 30
0.0
 10
116.2074332537464
 20
204.5854456895203
 30
0.0
 10
116.1706281372045
 20
204.5789048983111
 30
0.0
 10
116.0973509259607
 20
204.5620902515668
 30
0.0
 10
116.0607865196276
 20
204.5517751762453
 30
0.0
 10
115.9890418441964
 20
204.5281049060127
 30
0.0
 10
115.9537311441675
 20
204.5147305147379
 30
0.0
 10
115.901491160067
 20
204.4926839805952
 30
0.0
 10
115.8841739144515
 20
204.4849914564944
 30
0.0
 10
115.8499424325477
 20
204.4690751606929
 30
0.0
 10
115.8330168471336
 20
204.4608478763422
 30
0.0
 10
115.749254676135
 20
204.4184926480358
 30
0.0
 10
115.6849819997689
 20
204.3807575481207
 30
0.0
 10
115.5603520114013
 20
204.2999210620153
 30
0.0
 10
115.5000068880832
 20
204.2568016208314
 30
0.0
 10
115.3823136722445
 20
204.1665870042769
 30
0.0
 10
115.3249715952037
 20
204.119482878719
 30
0.0
 10
115.2127064124835
 20
204.0221896306379
 30
0.0
 10
115.1576614112252
 20
203.9718658038726
 30
0.0
 10
115.0508896940216
 20
203.8699630928557
 30
0.0
 10
114.9990188764133
 20
203.8182656692013
 30
0.0
 10
114.8474015003567
 20
203.6615927029827
 30
0.0
 10
114.7516018700508
 20
203.5550756931703
 30
0.0
 10
114.6148792092784
 20
203.393688577171
 30
0.0
 10
114.5704817321478
 20
203.3396122445293
 30
0.0
 10
114.5056388880298
 20
203.2581814115485
 30
0.0
 10
114.4842810742008
 20
203.2309367651777
 30
0.0
 10
114.4424075384405
 20
203.1766818298409
 30
0.0
 10
114.4218781137006
 20
203.1496559882242
 30
0.0
 10
114.3212471124631
 20
203.0150697704018
 30
0.0
 10
114.247149541988
 20
202.9091498197845
 30
0.0
 10
114.1457720559203
 20
202.7533854709264
 30
0.0
 10
114.1136163497822
 20
202.7019809907946
 30
0.0
 10
114.0679382522908
 20
202.6256992773832
 30
0.0
 10
114.0531225623413
 20
202.6003809234058
 30
0.0
 10
114.0244540761884
 20
202.5501786390054
 30
0.0
 10
114.0106082462662
 20
202.5253085836145
 30
0.0
 10
113.997256379693
 20
202.5006714947917
 30
0.0
  0
SPLINE
  5
F7
330
1F
100
AcDbEntity
  8
1
  6
Continuous
 62
     1
370
    13
100
AcDbSpline
210
0.0
220
0.0
230
1.0
 70
     8
 71
     3
 72
    25
 73
    21
 74
     0
 42
0.000000001
 43
0.0000000001
 40
0.0
 40
0.0
 40
0.0
 40
0.0
 40
0.1250000000000008
 40
0.1250000000000008
 40
0.2500000000000016
 40
0.2500000000000016
 40
0.3750000000000024
 40
0.3750000000000024
 40
0.4375000000000027
 40
0.4375000000000027
 40
0.4687500000000027
 40
0.4687500000000027
 40
0.5000000000000027
 40
0.7500000000000021
 40
0.7500000000000021
 40
0.8125000000000017
 40
0.8125000000000017
 40
0.8750000000000012
 40
0.8750000000000012
 40
1.0
 40
1.0
 40
1.0
 40
1.0
 10
115.0114357035441
 20
200.8047546648422
 30
0.0
 10
115.1229537601581
 20
200.7727083107908
 30
0.0
 10
115.2397221284242
 20
200.7407676936409
 30
0.0
 10
115.4830413247711
 20
200.6767887054116
 30
0.0
 10
115.609595894471
 20
200.6447512376334
 30
0.0
 10
115.8720885447343
 20
200.5802807761808
 30
0.0
 10
116.0080291345746
 20
200.5478484702707
 30
0.0
 10
116.2188419227477
 20
200.4986691901923
 30
0.0
 10
116.290264664218
 20
200.4821874490235
 30
0.0
 10
116.3991202794496
 20
200.4573003930177
 30
0.0
 10
116.4357340230441
 20
200.4489679055677
 30
0.0
 10
116.5092423731331
 20
200.4323088100241
 30
0.0
 10
116.8414365063987
 20
200.3573397530368
 30
0.0
 10
117.1859741533376
 20
200.282061432503
 30
0.0
 10
117.5790143119086
 20
200.196616577824
 30
0.0
 10
117.6581332193541
 20
200.1794396174177
 30
0.0
 10
117.8173374932818
 20
200.144888074654
 30
0.0
 10
117.8974745190715
 20
200.1275019185428
 30
0.0
 10
118.1388880583625
 20
200.0751174193668
 30
0.0
 10
118.300741772552
 20
200.0399546583815
 30
0.0
 10
118.463352773499
 20
200.0047546648422
 30
0.0
  0
SPLINE
  5
F8
330
1F
100
AcDbEntity
  8
1
  6
Continuous
 62
     1
370
    18
100
AcDbSpline
210
0.0
220
0.0
230
1.0
 70
     8
 71
     3
 72
    15
 73
    11
 74
     0
 42
0.000000001
 43
0.0000000001
 40
0.0
 40
0.0
 40
0.0
 40
0.0
 40
0.0792572171415636
 40
0.2203293161046784
 40
0.3709533166593448
 40
0.5137358491232505
 40
0.6495014016573466
 40
0.7789360759104467
 40
0.9022979536406606
 40
1.0
 40
1.0
 40
1.0
 40
1.0
 10
112.0433983362722
 20
202.8668985921336
 30
0.0
 10
112.0979656581926
 20
202.8435874632692
 30
0.0
 10
112.2449783472967
 20
202.7713726645574
 30
0.0
 10
112.4696255993066
 20
202.6075062207582
 30
0.0
 10
112.7011028285392
 20
202.3801808572354
 30
0.0
 10
112.8891120431404
 20
202.1201362589307
 30
0.0
 10
113.0276110385379
 20
201.8486271340997
 30
0.0
 10
113.1194453911129
 20
201.5735149457647
 30
0.0
 10
113.1677620464191
 20
201.3159474139281
 30
0.0
 10
113.175375040203
 20
201.1518012095327
 30
0.0
 10
113.1745415568104
 20
201.0786792512284
 30
0.0
  0
SPLINE
  5
F9
330
1F
100
AcDbEntity
  8
1
  6
Continuous
 62
     1
370
    18
100
AcDbSpline
210
0.0
220
0.0
230
1.0
 70
     8
 71
     3
 72
    15
 73
    11
 74
     0
 42
0.000000001
 43
0.0000000001
 40
0.0
 40
0.0
 40
0.0
 40
0.0
 40
0.0963864068498456
 40
0.229462472442448
 40
0.3659370264267565
 40
0.5043775357756173
 40
0.6439121734168638
 40
0.7971108820362114
 40
0.9421196634797454
 40
1.0
 40
1.0
 40
1.0
 40
1.0
 10
127.1807292785354
 20
200.9971919286421
 30
0.0
 10
127.1791757298306
 20
201.0699934440675
 30
0.0
 10
127.1856985652727
 20
201.2419027509256
 30
0.0
 10
127.2385387077616
 20
201.5130947890496
 30
0.0
 10
127.3400731560741
 20
201.8030983867198
 30
0.0
 10
127.4881978351682
 20
202.0781503877275
 30
0.0
 10
127.6846369074264
 20
202.3373123094694
 30
0.0
 10
127.9257443840275
 20
202.5620821006464
 30
0.0
 10
128.1470173682542
 20
202.7160806702719
 30
0.0
 10
128.2856670607021
 20
202.7788122691061
 30
0.0
 10
128.3261485467104
 20
202.7951419192955
 30
0.0
  0
SPLINE
  5
FA
330
1F
100
AcDbEntity
  8
1
  6
Continuous
 62
     1
370
    18
100
AcDbSpline
210
0.0
220
0.0
230
1.0
 70
    24
 71
     3
 72
     8
 73
     4
 74
     0
 42
0.000000001
 43
0.0000000001
 40
0.0
 40
0.0
 40
0.0
 40
0.0
 40
1.0
 40
1.0
 40
1.0
 40
1.0
 10
256.4626467270525
 20
199.9336328086337
 30
0.0
 10
256.4912000868633
 20
199.992643085576
 30
0.0000000000000001
 10
256.519889828653
 20
200.0519352186081
 30
0.0000000000000001
 10
256.54868123053
 20
200.1114374491539
 30
0.0000000000000001
  0
SPLINE
  5
FB
330
1F
100
AcDbEntity
  8
1
  6
Continuous
 62
     1
370
    18
100
AcDbSpline
210
0.0
220
0.0
230
1.0
 70
    24
 71
     3
 72
     8
 73
     4
 74
     0
 42
0.000000001
 43
0.0000000001
 40
0.0
 40
0.0
 40
0.0
 40
0.0
 40
1.0
 40
1.0
 40
1.0
 40
1.0
 10
269.2841495037762
 20
200.1114374491551
 30
-0.0000000000000001
 10
269.3129409056517
 20
200.0519352186125
 30
-0.0000000000000001
 10
269.3416306474398
 20
199.9926430855835
 30
-0.0000000000000001
 10
269.3701840072491
 20
199.9336328086443
 30
0.0
  0
SPLINE
  5
FC
330
1F
100
AcDbEntity
  8
1
  6
Continuous
 62
     1
370
    13
100
AcDbSpline
210
0.0
220
0.0
230
1.0
 70
     8
 71
     3
 72
     8
 73
     4
 74
     0
 42
0.000000001
 43
0.0000000001
 40
0.0
 40
0.0
 40
0.0
 40
0.0
 40
1.0
 40
1.0
 40
1.0
 40
1.0
 10
256.4626467270544
 20
199.9336328086378
 30
0.0
 10
256.474072001544
 20
199.9572450425827
 30
0.0
 10
256.487233127454
 20
199.9809445860449
 30
0.0000000000000001
 10
256.5020754372788
 20
200.0047546648417
 30
0.0000000000000001
  0
SPLINE
  5
FD
330
1F
100
AcDbEntity
  8
1
  6
Continuous
 62
     1
370
    13
100
AcDbSpline
210
0.0
220
0.0
230
1.0
 70
     8
 71
     3
 72
     8
 73
     4
 74
     0
 42
0.000000001
 43
0.0000000001
 40
0.0
 40
0.0
 40
0.0
 40
0.0
 40
1.0
 40
1.0
 40
1.0
 40
1.0
 10
269.3307552970276
 20
200.0047546648422
 30
-0.0000000000000001
 10
269.3455976068537
 20
199.9809445860435
 30
-0.0000000000000001
 10
269.3587587327611
 20
199.9572450425863
 30
0.0
 10
269.3701840072515
 20
199.9336328086395
 30
0.0
  0
SPLINE
  5
FE
330
1F
100
AcDbEntity
  8
1
  6
Continuous
 62
     1
370
    13
100
AcDbSpline
210
0.0
220
0.0
230
1.0
 70
     8
 71
     3
 72
    29
 73
    25
 74
     0
 42
0.000000001
 43
0.0000000001
 40
0.0
 40
0.0
 40
0.0
 40
0.0
 40
0.1249999999999996
 40
0.1249999999999996
 40
0.2499999999999991
 40
0.2499999999999991
 40
0.3749999999999987
 40
0.3749999999999987
 40
0.4374999999999986
 40
0.4687499999999984
 40
0.4687499999999984
 40
0.4999999999999983
 40
0.4999999999999983
 40
0.6249999999999986
 40
0.6249999999999986
 40
0.7499999999999988
 40
0.7499999999999988
 40
0.874999999999999
 40
0.874999999999999
 40
0.9062499999999992
 40
0.9062499999999992
 40
0.9374999999999994
 40
0.9374999999999994
 40
1.0
 40
1.0
 40
1.0
 40
1.0
 10
256.5020754372789
 20
200.0047546648418
 30
0.0000000000000001
 10
256.5243179934687
 20
200.0399236402837
 30
0.0000000000000001
 10
256.5509915308579
 20
200.0749572913276
 30
0.0000000000000001
 10
256.6152771466361
 20
200.1443116062749
 30
0.0000000000000001
 10
256.6528774915506
 20
200.1786538494227
 30
0.0000000000000001
 10
256.7404340684847
 20
200.2467785594099
 30
0.0000000000000001
 10
256.7903786848522
 20
200.2805673769484
 30
0.0000000000000001
 10
256.8754225169364
 20
200.3310477877316
 30
0.0000000000000001
 10
256.9204746422773
 20
200.3562383475108
 30
0.0000000000000001
 10
256.9694865575348
 20
200.3814001911401
 30
0.0000000000000001
 10
257.0030604600633
 20
200.3981737807121
 30
0.0000000000000001
 10
257.0203103083063
 20
200.4065659142102
 30
0.0000000000000001
 10
257.1084412891508
 20
200.4483449229366
 30
0.0000000000000001
 10
257.1852293929779
 20
200.4813267827772
 30
0.0000000000000001
 10
257.351484948202
 20
200.5467372186274
 30
-0.0000000000000003
 10
257.4409487521144
 20
200.5791653733862
 30
-0.0000000000000003
 10
257.6328765481887
 20
200.6437775395839
 30
-0.0000000000000003
 10
257.7353365339641
 20
200.6759608170032
 30
-0.0000000000000003
 10
257.8719410440846
 20
200.7162290172471
 30
-0.0000000000000003
 10
257.8996893974841
 20
200.7242846406022
 30
-0.0000000000000003
 10
257.9560554715426
 20
200.7404048400623
 30
-0.0000000000000003
 10
257.9846972865345
 20
200.748476060183
 30
-0.0000000000000003
 10
258.0717516332792
 20
200.7726555954694
 30
-0.0000000000000003
 10
258.1312617413344
 20
200.7887222736741
 30
-0.0000000000000003
 10
258.1922650850917
 20
200.8047546648422
 30
-0.0000000000000003
  0
SPLINE
  5
FF
330
1F
100
AcDbEntity
  8
1
  6
Continuous
 62
     1
370
    13
100
AcDbSpline
210
0.0
220
0.0
230
1.0
 70
     8
 71
     3
 72
    43
 73
    39
 74
     0
 42
0.000000001
 43
0.0000000001
 40
0.0
 40
0.0
 40
0.0
 40
0.0
 40
0.125000000000001
 40
0.125000000000001
 40
0.2500000000000019
 40
0.2500000000000019
 40
0.3125000000000024
 40
0.3125000000000024
 40
0.3437500000000029
 40
0.3437500000000029
 40
0.3750000000000034
 40
0.3750000000000034
 40
0.5000000000000049
 40
0.5000000000000049
 40
0.5625000000000054
 40
0.5625000000000054
 40
0.5937500000000056
 40
0.5937500000000056
 40
0.6250000000000056
 40
0.6250000000000056
 40
0.6875000000000047
 40
0.6875000000000047
 40
0.7500000000000038
 40
0.7500000000000038
 40
0.812500000000003
 40
0.812500000000003
 40
0.8281250000000028
 40
0.8281250000000028
 40
0.8437500000000026
 40
0.8437500000000026
 40
0.8750000000000021
 40
0.8750000000000021
 40
0.9375000000000013
 40
0.9375000000000013
 40
0.9531250000000011
 40
0.9531250000000011
 40
0.9687500000000009
 40
1.0
 40
1.0
 40
1.0
 40
1.0
 10
259.6283236910973
 20
202.5006714947917
 30
-0.0000000000000002
 10
259.5278123115669
 20
202.5993540811753
 30
-0.0000000000000002
 10
259.4369963468112
 20
202.7003998121039
 30
-0.0000000000000002
 10
259.2728685023537
 20
202.9067104221918
 30
-0.0000000000000002
 10
259.1995723548458
 20
203.0119835551002
 30
-0.0000000000000002
 10
259.1020202560672
 20
203.1725940962875
 30
-0.0000000000000002
 10
259.0715736144364
 20
203.2265794570178
 30
-0.0000000000000002
 10
259.0289527333725
 20
203.3081426066938
 30
-0.0000000000000002
 10
259.0152616881719
 20
203.3354181327603
 30
-0.0000000000000002
 10
258.9890750268914
 20
203.3897342395018
 30
-0.0000000000000002
 10
258.9765519700571
 20
203.4168262645725
 30
-0.0000000000000002
 10
258.9166812180044
 20
203.5519091491043
 30
-0.0000000000000002
 10
258.8775505148512
 20
203.6588234692092
 30
-0.0000000000000002
 10
258.8302247864451
 20
203.8159878626238
 30
-0.0000000000000003
 10
258.8163482338381
 20
203.8678316212669
 30
-0.0000000000000003
 10
258.7981663176575
 20
203.9444534591532
 30
-0.0000000000000003
 10
258.7925373842786
 20
203.969836957073
 30
-0.0000000000000003
 10
258.7821542151897
 20
204.0199707182457
 30
-0.0000000000000003
 10
258.7774045391853
 20
204.0446929342156
 30
-0.0000000000000003
 10
258.7643871944145
 20
204.1177032688933
 30
-0.0000000000000003
 10
258.75735353714
 20
204.1648478125164
 30
-0.0000000000000003
 10
258.7460376789004
 20
204.2551736768949
 30
-0.0000000000000003
 10
258.7417583066118
 20
204.2983639704992
 30
-0.0000000000000003
 10
258.7353102118646
 20
204.3793768740125
 30
-0.0000000000000003
 10
258.7331465560528
 20
204.417217647642
 30
-0.0000000000000003
 10
258.7312236391233
 20
204.4597288757083
 30
-0.0000000000000003
 10
258.7308773548311
 20
204.4679885472646
 30
-0.0000000000000003
 10
258.7302441408307
 20
204.4839719928081
 30
-0.0000000000000003
 10
258.7299570735264
 20
204.4917010775161
 30
-0.0000000000000003
 10
258.7291620932985
 20
204.5138221483761
 30
-0.0000000000000003
 10
258.7287182407646
 20
204.527212061811
 30
-0.0000000000000003
 10
258.7273792391901
 20
204.5627276165833
 30
-0.0000000000000003
 10
258.7264830362435
 20
204.5802267641862
 30
-0.0000000000000003
 10
258.7243668609675
 20
204.5920178805317
 30
0.0000000000000002
 10
258.7238940232408
 20
204.5938613715765
 30
0.0000000000000002
 10
258.7228345641832
 20
204.5964638877315
 30
0.0000000000000002
 10
258.7210726894797
 20
204.5987583969956
 30
0.0000000000000002
 10
258.7187050649648
 20
204.5961533736525
 30
0.0000000000000002
 10
258.7167980793693
 20
204.5922122700884
 30
0.0000000000000002
  0
SPLINE
  5
100
330
1F
100
AcDbEntity
  8
1
  6
Continuous
 62
     1
370
    13
100
AcDbSpline
210
0.0
220
0.0
230
1.0
 70
     8
 71
     3
 72
    44
 73
    40
 74
     0
 42
0.000000001
 43
0.0000000001
 40
0.0
 40
0.0
 40
0.0
 40
0.0
 40
0.0625000000000008
 40
0.0625000000000008
 40
0.0937500000000017
 40
0.0937500000000017
 40
0.1250000000000026
 40
0.1250000000000026
 40
0.1562500000000034
 40
0.1562500000000034
 40
0.1718750000000032
 40
0.1718750000000032
 40
0.1875000000000031
 40
0.1875000000000031
 40
0.250000000000003
 40
0.250000000000003
 40
0.3125000000000029
 40
0.3125000000000029
 40
0.3750000000000029
 40
0.3750000000000029
 40
0.4375000000000028
 40
0.4375000000000028
 40
0.5000000000000028
 40
0.5000000000000028
 40
0.6250000000000039
 40
0.6250000000000039
 40
0.6875000000000041
 40
0.6875000000000041
 40
0.7187500000000036
 40
0.7187500000000036
 40
0.750000000000003
 40
0.750000000000003
 40
0.8750000000000011
 40
0.8750000000000011
 40
0.9375000000000006
 40
0.9375000000000006
 40
0.9687500000000003
 40
0.9687500000000003
 40
1.0
 40
1.0
 40
1.0
 40
1.0
 10
267.1160326549375
 20
204.5922122700884
 30
-0.0000000000000002
 10
267.1122253371369
 20
204.6000807268763
 30
-0.0000000000000002
 10
267.1097789935791
 20
204.5990553223854
 30
-0.0000000000000002
 10
267.107259650918
 20
204.5854456895203
 30
-0.0000000000000002
 10
267.1066078893149
 20
204.5789048983112
 30
0.0000000000000003
 10
267.1054996996496
 20
204.5620902515668
 30
0.0000000000000003
 10
267.1050418691869
 20
204.5517751762454
 30
0.0000000000000003
 10
267.1041430910531
 20
204.5281049060127
 30
0.0000000000000003
 10
267.1036996861114
 20
204.5147305147379
 30
0.0000000000000003
 10
267.1029097075323
 20
204.4926839805952
 30
0.0000000000000003
 10
267.1026252249001
 20
204.4849914564944
 30
0.0000000000000003
 10
267.1019979657082
 20
204.469075160693
 30
0.0000000000000003
 10
267.1016551071706
 20
204.4608478763423
 30
0.0000000000000003
 10
267.0997514375973
 20
204.4184926480359
 30
0.0000000000000003
 10
267.0976099848478
 20
204.3807575481207
 30
0.0000000000000003
 10
267.0912160627203
 20
204.2999210620153
 30
0.0000000000000003
 10
267.0869686386168
 20
204.2568016208314
 30
0.0000000000000003
 10
267.0757224032072
 20
204.1665870042769
 30
0.0000000000000003
 10
267.0687264219856
 20
204.119482878719
 30
0.0000000000000003
 10
267.0514471366129
 20
204.022189630638
 30
0.0000000000000003
 10
267.0411274592759
 20
203.9718658038726
 30
0.0000000000000003
 10
267.0170284249217
 20
203.8699630928557
 30
0.0000000000000003
 10
267.0032369616101
 20
203.8182656692013
 30
0.0000000000000003
 10
266.9562201063082
 20
203.6615927029827
 30
0.0000000000000002
 10
266.9173655057976
 20
203.5550756931703
 30
0.0000000000000002
 10
266.846112850048
 20
203.3936885771711
 30
0.0000000000000002
 10
266.8201981373624
 20
203.3396122445293
 30
0.0000000000000002
 10
266.777825696692
 20
203.2581814115485
 30
0.0000000000000002
 10
266.7630898588418
 20
203.2309367651777
 30
0.0000000000000002
 10
266.732590230612
 20
203.1766818298409
 30
0.0000000000000002
 10
266.7168206097603
 20
203.1496559882243
 30
0.0000000000000002
 10
266.635345051098
 20
203.0150697704019
 30
0.0000000000000002
 10
266.561782558425
 20
202.9091498197846
 30
0.0000000000000002
 10
266.4380451138286
 20
202.7533854709264
 30
0.0000000000000002
 10
266.3945620694593
 20
202.7019809907946
 30
0.0000000000000002
 10
266.3258201421098
 20
202.6256992773832
 30
0.0000000000000002
 10
266.302291696227
 20
202.6003809234058
 30
0.0000000000000002
 10
266.2541743358674
 20
202.5501786390054
 30
0.0000000000000002
 10
266.2296007084238
 20
202.5253085836146
 30
0.0000000000000002
 10
266.2045070432095
 20
202.5006714947917
 30
0.0000000000000002
  0
SPLINE
  5
101
330
1F
100
AcDbEntity
  8
1
  6
Continuous
 62
     1
370
    13
100
AcDbSpline
210
0.0
220
0.0
230
1.0
 70
     8
 71
     3
 72
    54
 73
    50
 74
     0
 42
0.000000001
 43
0.0000000001
 40
0.0
 40
0.0
 40
0.0
 40
0.0
 40
0.0625
 40
0.0625
 40
0.1249999999999999
 40
0.1249999999999999
 40
0.1874999999999999
 40
0.1874999999999999
 40
0.2187499999999998
 40
0.2187499999999998
 40
0.2343749999999997
 40
0.2343749999999997
 40
0.2499999999999997
 40
0.2499999999999997
 40
0.3125
 40
0.3125
 40
0.3750000000000003
 40
0.3750000000000003
 40
0.4062500000000005
 40
0.4062500000000005
 40
0.4218750000000006
 40
0.4218750000000006
 40
0.4375000000000006
 40
0.4375000000000006
 40
0.5000000000000007
 40
0.5000000000000007
 40
0.5625000000000008
 40
0.5625000000000008
 40
0.5937500000000007
 40
0.5937500000000007
 40
0.6250000000000007
 40
0.6250000000000007
 40
0.6562500000000008
 40
0.6562500000000008
 40
0.6875000000000009
 40
0.6875000000000009
 40
0.750000000000001
 40
0.750000000000001
 40
0.8125000000000013
 40
0.8125000000000013
 40
0.8437500000000012
 40
0.8437500000000012
 40
0.8593750000000013
 40
0.8593750000000013
 40
0.8750000000000014
 40
0.8750000000000014
 40
0.9375000000000007
 40
0.9375000000000007
 40
1.0
 40
1.0
 40
1.0
 40
1.0
 10
266.2045070432095
 20
202.5006714947917
 30
0.0000000000000002
 10
266.1029477220627
 20
202.3898994021272
 30
0.0000000000000002
 10
265.9965982616647
 20
202.2851305853482
 30
0.0000000000000002
 10
265.7741169007097
 20
202.0871952912187
 30
0.0000000000000002
 10
265.657986399472
 20
201.9940284663875
 30
0.0000000000000002
 10
265.415479996208
 20
201.8192566862579
 30
0.0000000000000002
 10
265.2891071354549
 20
201.7376494994963
 30
0.0000000000000001
 10
265.0912724448996
 20
201.6241783532931
 30
0.0000000000000001
 10
265.0239454999552
 20
201.5878478857305
 30
0.0000000000000001
 10
264.920777234942
 20
201.5356601034177
 30
0.0000000000000001
 10
264.8860433546205
 20
201.5186610587497
 30
0.0000000000000001
 10
264.8163288908237
 20
201.4856718946728
 30
0.0000000000000001
 10
264.7812892760381
 20
201.4696514365678
 30
0.0000000000000001
 10
264.6051806007955
 20
201.3918982271692
 30
0.0000000000000001
 10
264.4613863311671
 20
201.337191676819
 30
0.0000000000000001
 10
264.1679120369366
 20
201.2425591388392
 30
0.0000000000000001
 10
264.0182328796758
 20
201.202631831195
 30
0.0000000000000001
 10
263.7891123523285
 20
201.1540795356863
 30
0.0000000000000001
 10
263.7119704005348
 20
201.1397896069865
 30
0.0
 10
263.5950662089401
 20
201.1212713127371
 30
0.0
 10
263.5558994875184
 20
201.1155849711246
 30
0.0
 10
263.4771608264907
 20
201.105201837666
 30
0.0
 10
263.437533689051
 20
201.1004993667601
 30
0.0
 10
263.2389978101605
 20
201.0795757234692
 30
0.0
 10
263.0805763317488
 20
201.0712465231185
 30
0.0
 10
262.7645226567023
 20
201.070824935487
 30
0.0
 10
262.6068905251382
 20
201.0787341086683
 30
0.0
 10
262.3710345059518
 20
201.1028248215845
 30
0.0
 10
262.2925147198342
 20
201.1128977466805
 30
0.0
 10
262.1356752790568
 20
201.1371968496621
 30
0.0
 10
262.0572625643553
 20
201.1514503070597
 30
-0.0000000000000001
 10
261.9018812778747
 20
201.1839301173629
 30
-0.0000000000000001
 10
261.8246793873548
 20
201.2022060881546
 30
-0.0000000000000001
 10
261.6727257239577
 20
201.2423827787981
 30
-0.0000000000000001
 10
261.5978155903111
 20
201.264311122674
 30
-0.0000000000000001
 10
261.3761591042721
 20
201.3354558506735
 30
-0.0000000000000001
 10
261.2324785540897
 20
201.3900153627563
 30
-0.0000000000000001
 10
260.9528514106873
 20
201.5129851580952
 30
-0.0000000000000001
 10
260.8169065009271
 20
201.5813974450737
 30
-0.0000000000000001
 10
260.6186387897241
 20
201.6944844451347
 30
-0.0000000000000001
 10
260.5534928897303
 20
201.7339286639998
 30
-0.0000000000000001
 10
260.4571847912063
 20
201.7957617924654
 30
-0.0000000000000002
 10
260.4253751038125
 20
201.8167817153368
 30
-0.0000000000000002
 10
260.3625352764642
 20
201.8594976156683
 30
-0.0000000000000002
 10
260.3314734978256
 20
201.8812137907725
 30
-0.0000000000000002
 10
260.1779191549099
 20
201.9915707137976
 30
-0.0000000000000002
 10
260.0606763405394
 20
202.0855244316659
 30
-0.0000000000000002
 10
259.8367050347704
 20
202.2846358462052
 30
-0.0000000000000002
 10
259.7299789204602
 20
202.3897947937693
 30
-0.0000000000000002
 10
259.6283236910973
 20
202.5006714947917
 30
-0.0000000000000002
  0
SPLINE
  5
102
330
1F
100
AcDbEntity
  8
1
  6
Continuous
 62
     1
370
    13
100
AcDbSpline
210
0.0
220
0.0
230
1.0
 70
     8
 71
     3
 72
    25
 73
    21
 74
     0
 42
0.000000001
 43
0.0000000001
 40
0.0
 40
0.0
 40
0.0
 40
0.0
 40
0.1250000000000008
 40
0.1250000000000008
 40
0.2500000000000016
 40
0.2500000000000016
 40
0.3750000000000024
 40
0.3750000000000024
 40
0.4375000000000027
 40
0.4375000000000027
 40
0.4687500000000027
 40
0.4687500000000027
 40
0.5000000000000027
 40
0.7500000000000021
 40
0.7500000000000021
 40
0.8125000000000017
 40
0.8125000000000017
 40
0.8750000000000012
 40
0.8750000000000012
 40
1.0
 40
1.0
 40
1.0
 40
1.0
 10
267.6405656492151
 20
200.8047546648422
 30
0.0000000000000003
 10
267.7625022169966
 20
200.7727083107908
 30
0.0000000000000003
 10
267.8775613126072
 20
200.7407676936409
 30
0.0000000000000003
 10
268.094768311232
 20
200.6767887054116
 30
0.0000000000000003
 10
268.1969115854456
 20
200.6447512376335
 30
0.0000000000000003
 10
268.3887142024794
 20
200.5802807761808
 30
0.0000000000000003
 10
268.4783704680153
 20
200.5478484702708
 30
0.0000000000000003
 10
268.6035935634837
 20
200.4986691901923
 30
-0.0000000000000001
 10
268.6437890183718
 20
200.4821874490236
 30
-0.0000000000000001
 10
268.7017616627137
 20
200.4573003930177
 30
-0.0000000000000001
 10
268.7207193346615
 20
200.4489679055678
 30
-0.0000000000000001
 10
268.7577147455839
 20
200.4323088100242
 30
-0.0000000000000001
 10
268.9201386713121
 20
200.3573397530368
 30
-0.0000000000000001
 10
269.0467948882041
 20
200.2820614325031
 30
-0.0000000000000001
 10
269.15692825195
 20
200.196616577824
 30
-0.0000000000000001
 10
269.1774269199761
 20
200.1794396174177
 30
-0.0000000000000001
 10
269.2155138751355
 20
200.1448880746541
 30
-0.0000000000000001
 10
269.2331119430419
 20
200.1275019185428
 30
-0.0000000000000001
 10
269.2817356141571
 20
200.0751174193668
 30
-0.0000000000000001
 10
269.308493123497
 20
200.0399546583815
 30
-0.0000000000000001
 10
269.3307552970276
 20
200.0047546648422
 30
-0.0000000000000001
  0
SPLINE
  5
103
330
1F
100
AcDbEntity
  8
1
  6
Continuous
 62
     1
370
    13
100
AcDbSpline
210
0.0
220
0.0
230
1.0
 70
     8
 71
     3
 72
    53
 73
    49
 74
     0
 42
0.000000001
 43
0.0000000001
 40
0.0
 40
0.0
 40
0.0
 40
0.0
 40
0.0624999999999986
 40
0.0624999999999986
 40
0.1249999999999973
 40
0.1249999999999973
 40
0.1406249999999971
 40
0.1406249999999971
 40
0.156249999999997
 40
0.156249999999997
 40
0.1874999999999972
 40
0.1874999999999972
 40
0.2499999999999978
 40
0.2499999999999978
 40
0.3124999999999983
 40
0.3124999999999983
 40
0.3437499999999988
 40
0.3437499999999988
 40
0.3593749999999991
 40
0.3593749999999991
 40
0.3749999999999993
 40
0.3749999999999993
 40
0.4375000000000001
 40
0.4375000000000001
 40
0.5000000000000008
 40
0.5000000000000008
 40
0.5625000000000016
 40
0.5625000000000016
 40
0.5781250000000018
 40
0.5781250000000018
 40
0.5937500000000018
 40
0.625000000000002
 40
0.625000000000002
 40
0.6875000000000024
 40
0.6875000000000024
 40
0.7500000000000028
 40
0.7500000000000028
 40
0.7812500000000028
 40
0.7812500000000028
 40
0.7968750000000027
 40
0.7968750000000027
 40
0.8125000000000026
 40
0.8125000000000026
 40
0.8750000000000018
 40
0.8750000000000018
 40
0.9375000000000009
 40
0.9375000000000009
 40
1.0
 40
1.0
 40
1.0
 40
1.0
 10
260.098051073391
 20
203.7906642703267
 30
-0.0000000000000002
 10
260.1911575047743
 20
203.7136434694922
 30
-0.0000000000000002
 10
260.2881147310711
 20
203.6420660145598
 30
-0.0000000000000002
 10
260.4897290742295
 20
203.5086316708236
 30
-0.0000000000000001
 10
260.5943863758941
 20
203.4467793370416
 30
-0.0000000000000001
 10
260.730165345718
 20
203.3751379529315
 30
-0.0000000000000001
 10
260.7575695796486
 20
203.361094472688
 30
-0.0000000000000001
 10
260.8128808896634
 20
203.3335711760232
 30
-0.0000000000000001
 10
260.8408071277466
 20
203.3200831943863
 30
-0.0000000000000001
 10
260.9249758736233
 20
203.2806289906093
 30
-0.0000000000000001
 10
260.9817172158746
 20
203.2556150039433
 30
-0.0000000000000001
 10
261.153818237769
 20
203.1842760701985
 30
-0.0000000000000001
 10
261.27105093055
 20
203.1416414825177
 30
-0.0000000000000001
 10
261.5105601866787
 20
203.0656892867063
 30
-0.0000000000000001
 10
261.6328363828502
 20
203.0323730252432
 30
-0.0000000000000001
 10
261.8201674257973
 20
202.9892840137582
 30
-0.0000000000000001
 10
261.8832649609302
 20
202.9760714990096
 30
-0.0000000000000001
 10
261.9789193173766
 20
202.9579922048124
 30
-0.0000000000000001
 10
262.0110116730096
 20
202.9522493120773
 30
-0.0000000000000001
 10
262.0753478910406
 20
202.9413800655562
 30
-0.0000000000000001
 10
262.1075428844341
 20
202.936261074332
 30
0.0
 10
262.2686511432937
 20
202.9122198331525
 30
0.0
 10
262.3979634402961
 20
202.8979433155615
 30
0.0
 10
262.6574243460112
 20
202.8789336621656
 30
0.0
 10
262.7875729748288
 20
202.8742013916561
 30
0.0
 10
263.0487124990034
 20
202.8742858770828
 30
0.0
 10
263.1797033243136
 20
202.8791015503805
 30
0.0
 10
263.3439854563354
 20
202.8913257870461
 30
0.0
 10
263.3768714971963
 20
202.8940833267483
 30
0.0
 10
263.4422921704348
 20
202.9001878923418
 30
0.0
 10
263.5400494355785
 20
202.910239755783
 30
0.0
 10
263.6367017484274
 20
202.9229495162173
 30
0.0
 10
263.8285664475056
 20
202.9518749586203
 30
0.0000000000000001
 10
263.9545593541001
 20
202.9758217150461
 30
0.0000000000000001
 10
264.2028109521936
 20
203.0331212362597
 30
0.0000000000000001
 10
264.3250694693327
 20
203.0664729148255
 30
0.0000000000000001
 10
264.5056598425089
 20
203.1238991851813
 30
0.0000000000000001
 10
264.5653896795066
 20
203.144277453534
 30
0.0000000000000001
 10
264.6542777784392
 20
203.1767727196065
 30
0.0000000000000001
 10
264.6837341728934
 20
203.1879066984374
 30
0.0000000000000001
 10
264.7421053217972
 20
203.2107051073054
 30
0.0000000000000001
 10
264.771050823337
 20
203.2223806990496
 30
0.0000000000000001
 10
264.9145962050638
 20
203.2821446942976
 30
0.0000000000000001
 10
265.0256584173939
 20
203.3343756697403
 30
0.0000000000000001
 10
265.2405563121571
 20
203.4480286464363
 30
0.0000000000000001
 10
265.3443914362338
 20
203.509448223577
 30
0.0000000000000001
 10
265.5449460562918
 20
203.6422556116685
 30
0.0000000000000002
 10
265.6416662453154
 20
203.7136376919109
 30
0.0000000000000002
 10
265.7347796609158
 20
203.7906642703267
 30
0.0000000000000002
  0
SPLINE
  5
104
330
1F
100
AcDbEntity
  8
1
  6
Continuous
 62
     1
370
    13
100
AcDbSpline
210
0.0
220
0.0
230
1.0
 70
     8
 71
     3
 72
    39
 73
    35
 74
     0
 42
0.000000001
 43
0.0000000001
 40
0.0
 40
0.0
 40
0.0
 40
0.0
 40
0.0624999999999968
 40
0.0624999999999968
 40
0.1249999999999937
 40
0.1249999999999937
 40
0.2499999999999877
 40
0.2499999999999877
 40
0.2656249999999878
 40
0.2656249999999878
 40
0.281249999999988
 40
0.3124999999999872
 40
0.3749999999999856
 40
0.3749999999999856
 40
0.4999999999999835
 40
0.4999999999999835
 40
0.5312499999999831
 40
0.5312499999999831
 40
0.5468749999999829
 40
0.5468749999999829
 40
0.5624999999999826
 40
0.6249999999999848
 40
0.6249999999999848
 40
0.7499999999999897
 40
0.7499999999999897
 40
0.781249999999991
 40
0.781249999999991
 40
0.8124999999999922
 40
0.8124999999999922
 40
0.8749999999999949
 40
0.8749999999999949
 40
0.9374999999999974
 40
0.9374999999999974
 40
1.0
 40
1.0
 40
1.0
 40
1.0
 10
265.7347796609158
 20
203.7906642703267
 30
0.0000000000000002
 10
265.8010868079544
 20
203.8455157933641
 30
0.0000000000000002
 10
265.8641000443405
 20
203.9002337364514
 30
0.0000000000000002
 10
265.9839918951408
 20
204.0093307384793
 30
0.0000000000000002
 10
266.0408690121066
 20
204.0637099092715
 30
0.0000000000000002
 10
266.2027712308651
 20
204.2261666767853
 30
0.0000000000000002
 10
266.2991000486412
 20
204.333596039597
 30
0.0000000000000002
 10
266.3952362460074
 20
204.4525871170307
 30
0.0000000000000002
 10
266.4057615153331
 20
204.465799781484
 30
0.0000000000000002
 10
266.426395802058
 20
204.4920692666644
 30
0.0000000000000002
 10
266.4567094327692
 20
204.5312207477877
 30
0.0000000000000002
 10
266.523101267867
 20
204.6207967377194
 30
0.0000000000000002
 10
266.5729670069379
 20
204.6944885719039
 30
0.0000000000000002
 10
266.6642038754914
 20
204.8375161841365
 30
0.0000000000000002
 10
266.7137198972311
 20
204.9271188716533
 30
0.0000000000000002
 10
266.7639090348366
 20
205.0303374875768
 30
0.0000000000000002
 10
266.7733599985741
 20
205.0505373102905
 30
0.0000000000000002
 10
266.7866986027125
 20
205.0801259915077
 30
0.0000000000000002
 10
266.7910086776934
 20
205.0898786475902
 30
0.0000000000000002
 10
266.7993274629316
 20
205.1090701570443
 30
0.0000000000000002
 10
266.8193845114031
 20
205.1562927091781
 30
0.0000000000000002
 10
266.8358999045568
 20
205.1997011714389
 30
0.0000000000000002
 10
266.8698295276405
 20
205.2960729937749
 30
0.0000000000000002
 10
266.88484725836
 20
205.3499687410024
 30
0.0000000000000002
 10
266.8974734030045
 20
205.4018342154617
 30
0.0000000000000002
 10
266.899690534729
 20
205.4114275230195
 30
0.0000000000000002
 10
266.9035897518021
 20
205.4289737385558
 30
0.0000000000000002
 10
266.9052719547566
 20
205.4369280576399
 30
0.0000000000000002
 10
266.9096099257238
 20
205.4580693185827
 30
0.0000000000000002
 10
266.9115762595445
 20
205.4685988679195
 30
0.0000000000000002
 10
266.9143395359335
 20
205.4823225489449
 30
0.0000000000000002
 10
266.9151372501011
 20
205.4855142318462
 30
0.0000000000000002
 10
266.9161165047664
 20
205.4844610746498
 30
-0.0000000000000002
 10
266.916298809527
 20
205.4802143801634
 30
-0.0000000000000002
 10
266.9163725608973
 20
205.4722873637269
 30
-0.0000000000000002
  0
SPLINE
  5
105
330
1F
100
AcDbEntity
  8
1
  6
Continuous
 62
     1
370
    13
100
AcDbSpline
210
0.0
220
0.0
230
1.0
 70
     8
 71
     3
 72
    40
 73
    36
 74
     0
 42
0.000000001
 43
0.0000000001
 40
0.0
 40
0.0
 40
0.0
 40
0.0
 40
0.0625000000000008
 40
0.0625000000000008
 40
0.1250000000000016
 40
0.1250000000000016
 40
0.1875000000000024
 40
0.1875000000000024
 40
0.2187500000000025
 40
0.2187500000000025
 40
0.2500000000000027
 40
0.2500000000000027
 40
0.3750000000000052
 40
0.3750000000000052
 40
0.4375000000000062
 40
0.4375000000000062
 40
0.4687500000000063
 40
0.4687500000000063
 40
0.5000000000000066
 40
0.5000000000000066
 40
0.6250000000000048
 40
0.6250000000000048
 40
0.687500000000004
 40
0.687500000000004
 40
0.7187500000000037
 40
0.7187500000000037
 40
0.7500000000000034
 40
0.7500000000000034
 40
0.8750000000000018
 40
0.8750000000000018
 40
0.9375000000000009
 40
0.9375000000000009
 40
0.9687500000000004
 40
0.9687500000000004
 40
1.0
 40
1.0
 40
1.0
 40
1.0
 10
258.9164581734099
 20
205.4722873637278
 30
0.0000000000000002
 10
258.9165317919596
 20
205.4802001042079
 30
0.0000000000000002
 10
258.9167135997154
 20
205.4844456783739
 30
0.0000000000000002
 10
258.9176887859865
 20
205.4855238178726
 30
-0.0000000000000002
 10
258.918482922967
 20
205.4823582215834
 30
-0.0000000000000002
 10
258.9212324446477
 20
205.4687136468968
 30
-0.0000000000000002
 10
258.9231885958533
 20
205.4582370951565
 30
-0.0000000000000002
 10
258.9275029537555
 20
205.4371948671489
 30
-0.0000000000000002
 10
258.9291759535756
 20
205.4292764017968
 30
-0.0000000000000002
 10
258.9330545417041
 20
205.4118033226306
 30
-0.0000000000000002
 10
258.9352597344076
 20
205.402249695533
 30
-0.0000000000000002
 10
258.947816172658
 20
205.3505992761484
 30
-0.0000000000000002
 10
258.9627471344399
 20
205.2969287539226
 30
-0.0000000000000002
 10
258.9964524361885
 20
205.2009947088094
 30
-0.0000000000000002
 10
259.0095740935356
 20
205.1664305368015
 30
-0.0000000000000002
 10
259.0326241882335
 20
205.1109513869217
 30
-0.0000000000000002
 10
259.0408702748405
 20
205.0918495403796
 30
-0.0000000000000002
 10
259.0585780769268
 20
205.0524708803402
 30
-0.0000000000000002
 10
259.0679911809872
 20
205.0323025415397
 30
-0.0000000000000002
 10
259.117997958659
 20
204.9292140104503
 30
-0.0000000000000002
 10
259.167388288028
 20
204.8396279567117
 30
-0.0000000000000002
 10
259.2585600855583
 20
204.6964498259732
 30
-0.0000000000000002
 10
259.2918031609707
 20
204.6472425234022
 30
-0.0000000000000002
 10
259.3464095051519
 20
204.5713233699131
 30
-0.0000000000000002
 10
259.3654294275779
 20
204.5456299910602
 30
-0.0000000000000002
 10
259.4050239907778
 20
204.4937020863024
 30
-0.0000000000000002
 10
259.4255130816127
 20
204.4675779647583
 30
-0.0000000000000002
 10
259.5314797041297
 20
204.3362397082029
 30
-0.0000000000000002
 10
259.6274682256438
 20
204.2289132120648
 30
-0.0000000000000002
 10
259.7900110656801
 20
204.0655962260603
 30
-0.0000000000000002
 10
259.847295163633
 20
204.0107613755265
 30
-0.0000000000000002
 10
259.9382214068242
 20
203.927983320379
 30
-0.0000000000000002
 10
259.9692508456061
 20
203.9004074083585
 30
-0.0000000000000002
 10
260.0326252141971
 20
203.8454316901097
 30
-0.0000000000000002
 10
260.0649926665834
 20
203.8180113067107
 30
-0.0000000000000002
 10
260.0980510733909
 20
203.7906642703267
 30
-0.0000000000000002
  0
SPLINE
  5
106
330
1F
100
AcDbEntity
  8
1
  6
Continuous
 62
     1
370
    13
100
AcDbSpline
210
0.0
220
0.0
230
1.0
 70
     8
 71
     3
 72
     8
 73
     4
 74
     0
 42
0.000000001
 43
0.0000000001
 40
0.0
 40
0.0
 40
0.0
 40
0.0
 40
1.0
 40
1.0
 40
1.0
 40
1.0
 10
118.3858014053894
 20
59.89229678591708
 30
-0.0000000000000005
 10
118.5167139226092
 20
59.89784036220688
 30
-0.0000000000000005
 10
118.6476844913711
 20
59.90065496730913
 30
-0.0000000000000005
 10
118.7787149333068
 20
59.90065496730942
 30
-0.0000000000000005
  0
SPLINE
  5
107
330
1F
100
AcDbEntity
  8
1
  6
Continuous
 62
     1
370
    13
100
AcDbSpline
210
0.0
220
0.0
230
1.0
 70
     8
 71
     3
 72
     8
 73
     4
 74
     0
 42
0.000000001
 43
0.0000000001
 40
0.0
 40
0.0
 40
0.0
 40
0.0
 40
1.0
 40
1.0
 40
1.0
 40
1.0
 10
121.9680726853681
 20
43.40083886283786
 30
0.0000000000000005
 10
121.8371601681485
 20
43.39529528654806
 30
0.0000000000000005
 10
121.7061895993867
 20
43.39248068144582
 30
0.0000000000000005
 10
121.5751591574511
 20
43.39248068144552
 30
0.0000000000000005
  0
SPLINE
  5
108
330
1F
100
AcDbEntity
  8
1
  6
Continuous
 62
     1
370
    13
100
AcDbSpline
210
0.0
220
0.0
230
1.0
 70
     8
 71
     3
 72
     8
 73
     4
 74
     0
 42
0.000000001
 43
0.0000000001
 40
0.0
 40
0.0
 40
0.0
 40
0.0
 40
1.0
 40
1.0
 40
1.0
 40
1.0
 10
121.5751591574511
 20
59.90065496730941
 30
-0.0000000000000005
 10
121.7061895993876
 20
59.90065496730913
 30
-0.0000000000000005
 10
121.8371601681502
 20
59.89784036220686
 30
-0.0000000000000005
 10
121.9680726853708
 20
59.89229678591698
 30
-0.0000000000000005
  0
SPLINE
  5
109
330
1F
100
AcDbEntity
  8
1
  6
Continuous
 62
     1
370
    13
100
AcDbSpline
210
0.0
220
0.0
230
1.0
 70
     8
 71
     3
 72
     8
 73
     4
 74
     0
 42
0.000000001
 43
0.0000000001
 40
0.0
 40
0.0
 40
0.0
 40
0.0
 40
1.0
 40
1.0
 40
1.0
 40
1.0
 10
118.7787149333065
 20
43.39248068144553
 30
0.0000000000000005
 10
118.64768449137
 20
43.39248068144582
 30
0.0000000000000005
 10
118.5167139226074
 20
43.39529528654808
 30
0.0000000000000005
 10
118.3858014053868
 20
43.40083886283796
 30
0.0000000000000005
  0
SPLINE
  5
10A
330
1F
100
AcDbEntity
  8
1
  6
Continuous
 62
     1
370
    13
100
AcDbSpline
210
0.0
220
0.0
230
1.0
 70
     8
 71
     3
 72
     8
 73
     4
 74
     0
 42
0.000000001
 43
0.0000000001
 40
0.0
 40
0.0
 40
0.0
 40
0.0
 40
1.0
 40
1.0
 40
1.0
 40
1.0
 10
118.7787149333086
 20
58.1003364644764
 30
-0.0000000000000004
 10
118.6733580273735
 20
58.08891118998692
 30
-0.0000000000000004
 10
118.568237839729
 20
58.07575006407689
 30
-0.0000000000000004
 10
118.4633527735011
 20
58.06090775425199
 30
-0.0000000000000004
  0
SPLINE
  5
10B
330
1F
100
AcDbEntity
  8
1
  6
Continuous
 62
     1
370
    13
100
AcDbSpline
210
0.0
220
0.0
230
1.0
 70
     8
 71
     3
 72
     8
 73
     4
 74
     0
 42
0.000000001
 43
0.0000000001
 40
0.0
 40
0.0
 40
0.0
 40
0.0
 40
1.0
 40
1.0
 40
1.0
 40
1.0
 10
121.8905213172586
 20
58.06090775425168
 30
-0.0000000000000004
 10
121.7856362510225
 20
58.07575006407777
 30
-0.0000000000000004
 10
121.6805160633921
 20
58.08891118998517
 30
-0.0000000000000004
 10
121.5751591574487
 20
58.10033646447554
 30
-0.0000000000000004
  0
SPLINE
  5
10C
330
1F
100
AcDbEntity
  8
1
  6
Continuous
 62
     1
370
    13
100
AcDbSpline
210
0.0
220
0.0
230
1.0
 70
     8
 71
     3
 72
     8
 73
     4
 74
     0
 42
0.000000001
 43
0.0000000001
 40
0.0
 40
0.0
 40
0.0
 40
0.0
 40
1.0
 40
1.0
 40
1.0
 40
1.0
 10
121.5751591574492
 20
45.19279918427858
 30
0.0000000000000004
 10
121.6805160633842
 20
45.20422445876804
 30
0.0000000000000004
 10
121.7856362510288
 20
45.21738558467808
 30
0.0000000000000004
 10
121.8905213172565
 20
45.23222789450296
 30
0.0000000000000004
  0
SPLINE
  5
10D
330
1F
100
AcDbEntity
  8
1
  6
Continuous
 62
     1
370
    13
100
AcDbSpline
210
0.0
220
0.0
230
1.0
 70
     8
 71
     3
 72
     8
 73
     4
 74
     0
 42
0.000000001
 43
0.0000000001
 40
0.0
 40
0.0
 40
0.0
 40
0.0
 40
1.0
 40
1.0
 40
1.0
 40
1.0
 10
118.463352773499
 20
45.23222789450326
 30
0.0000000000000004
 10
118.5682378397351
 20
45.21738558467717
 30
0.0000000000000004
 10
118.6733580273655
 20
45.20422445876977
 30
0.0000000000000004
 10
118.7787149333089
 20
45.1927991842794
 30
0.0000000000000004
  0
SPLINE
  5
10E
330
1F
100
AcDbEntity
  8
1
  6
Continuous
 62
     1
370
    13
100
AcDbSpline
210
0.0
220
0.0
230
1.0
 70
     8
 71
     3
 72
    25
 73
    21
 74
     0
 42
0.000000001
 43
0.0000000001
 40
0.0
 40
0.0
 40
0.0
 40
0.0
 40
0.1249999999999998
 40
0.1249999999999998
 40
0.2499999999999997
 40
0.2499999999999997
 40
0.3749999999999995
 40
0.3749999999999995
 40
0.4999999999999993
 40
0.4999999999999993
 40
0.5312499999999992
 40
0.5312499999999992
 40
0.562499999999999
 40
0.6249999999999991
 40
0.6249999999999991
 40
0.7499999999999993
 40
0.7499999999999993
 40
0.8749999999999996
 40
0.8749999999999996
 40
1.0
 40
1.0
 40
1.0
 40
1.0
 10
121.9680726853708
 20
59.89229678591698
 30
-0.0000000000000005
 10
122.1972101023275
 20
59.88259381191012
 30
-0.0000000000000005
 10
122.4256302848357
 20
59.86392493994641
 30
-0.0000000000000005
 10
122.8806222738177
 20
59.80591341124734
 30
-0.0000000000000005
 10
123.1052345903741
 20
59.76686398575774
 30
-0.0000000000000005
 10
123.5484887373599
 20
59.66797032313168
 30
-0.0000000000000005
 10
123.7671363390875
 20
59.60814618704863
 30
-0.0000000000000005
 10
124.1982826885342
 20
59.46708185960117
 30
-0.0000000000000005
 10
124.4107845242189
 20
59.38585242341851
 30
-0.0000000000000005
 10
124.6723839322457
 20
59.2702867633768
 30
-0.0000000000000005
 10
124.7245381083764
 20
59.24645370250123
 30
-0.0000000000000005
 10
124.8282810997132
 20
59.19743299788801
 30
-0.0000000000000005
 10
124.9825719514253
 20
59.12209757694308
 30
-0.0000000000000005
 10
125.1329329153365
 20
59.0414049792842
 30
-0.0000000000000005
 10
125.4284883646536
 20
58.87297690138449
 30
-0.0000000000000004
 10
125.618649595634
 20
58.75131859492072
 30
-0.0000000000000004
 10
125.9853032800286
 20
58.48936886557961
 30
-0.0000000000000004
 10
126.1617973357505
 20
58.34907962694909
 30
-0.0000000000000004
 10
126.500769387921
 20
58.04939462294577
 30
-0.0000000000000004
 10
126.6632515861939
 20
57.89000458545047
 30
-0.0000000000000004
 10
126.818295913452
 20
57.72047532988539
 30
-0.0000000000000004
  0
SPLINE
  5
10F
330
1F
100
AcDbEntity
  8
1
  6
Continuous
 62
     1
370
    13
100
AcDbSpline
210
0.0
220
0.0
230
1.0
 70
     8
 71
     3
 72
    30
 73
    26
 74
     0
 42
0.000000001
 43
0.0000000001
 40
0.0
 40
0.0
 40
0.0
 40
0.0
 40
0.0625000000000004
 40
0.0625000000000004
 40
0.0937500000000008
 40
0.0937500000000008
 40
0.1250000000000011
 40
0.1250000000000011
 40
0.2500000000000022
 40
0.2500000000000022
 40
0.3750000000000032
 40
0.3750000000000032
 40
0.5000000000000042
 40
0.5000000000000042
 40
0.531250000000004
 40
0.531250000000004
 40
0.5625000000000038
 40
0.5625000000000038
 40
0.6250000000000032
 40
0.6250000000000032
 40
0.7500000000000021
 40
0.7500000000000021
 40
0.8750000000000011
 40
0.8750000000000011
 40
1.0
 40
1.0
 40
1.0
 40
1.0
 10
113.5355781773056
 20
57.72047532988539
 30
-0.0000000000000004
 10
113.6131681764221
 20
57.80531413064732
 30
-0.0000000000000004
 10
113.6929759791341
 20
57.88798982718161
 30
-0.0000000000000004
 10
113.8159878160974
 20
58.00878463276176
 30
-0.0000000000000004
 10
113.8575562140457
 20
58.04852362096465
 30
-0.0000000000000004
 10
113.941455825207
 20
58.12662429393628
 30
-0.0000000000000004
 10
113.9838265881804
 20
58.16502579019768
 30
-0.0000000000000004
 10
114.1977511774179
 20
58.3538414954952
 30
-0.0000000000000004
 10
114.3754989562043
 20
58.49470869190264
 30
-0.0000000000000004
 10
114.7436523584106
 20
58.75693298964804
 30
-0.0000000000000004
 10
114.9340606826856
 20
58.87828592803885
 30
-0.0000000000000004
 10
115.3273993554066
 20
59.10169105582929
 30
-0.0000000000000005
 10
115.5303308372259
 20
59.20374149831071
 30
-0.0000000000000005
 10
115.7919607594947
 20
59.31902686651605
 30
-0.0000000000000005
 10
115.8446858659208
 20
59.34146875583064
 30
-0.0000000000000005
 10
115.9509411002915
 20
59.38511171923327
 30
-0.0000000000000005
 10
116.0042702957809
 20
59.40622958086614
 30
-0.0000000000000005
 10
116.1646402237859
 20
59.46742315837086
 30
-0.0000000000000005
 10
116.272155721111
 20
59.50537807723728
 30
-0.0000000000000005
 10
116.5964522590763
 20
59.61098738589235
 30
-0.0000000000000005
 10
116.8149817374192
 20
59.67039391447127
 30
-0.0000000000000005
 10
117.2564691139103
 20
59.76831689823487
 30
-0.0000000000000005
 10
117.4794312867899
 20
59.80681318833675
 30
-0.0000000000000005
 10
117.9295586851145
 20
59.86397881435981
 30
-0.0000000000000005
 10
118.1567347939753
 20
59.88259681021739
 30
-0.0000000000000005
 10
118.3858014053894
 20
59.8922967859171
 30
-0.0000000000000005
  0
SPLINE
  5
110
330
1F
100
AcDbEntity
  8
1
  6
Continuous
 62
     1
370
    13
100
AcDbSpline
210
0.0
220
0.0
230
1.0
 70
     8
 71
     3
 72
    30
 73
    26
 74
     0
 42
0.000000001
 43
0.0000000001
 40
0.0
 40
0.0
 40
0.0
 40
0.0
 40
0.0625000000000002
 40
0.0625000000000002
 40
0.0937500000000005
 40
0.0937500000000005
 40
0.1250000000000008
 40
0.1250000000000008
 40
0.2500000000000018
 40
0.2500000000000018
 40
0.3750000000000029
 40
0.3750000000000029
 40
0.500000000000004
 40
0.500000000000004
 40
0.5312500000000038
 40
0.5312500000000038
 40
0.5625000000000036
 40
0.5625000000000036
 40
0.625000000000003
 40
0.625000000000003
 40
0.750000000000002
 40
0.750000000000002
 40
0.875000000000001
 40
0.875000000000001
 40
1.0
 40
1.0
 40
1.0
 40
1.0
 10
126.818295913452
 20
45.57266031886955
 30
0.0000000000000004
 10
126.7407059143355
 20
45.48782151810762
 30
0.0000000000000004
 10
126.6608981116235
 20
45.40514582157333
 30
0.0000000000000004
 10
126.5378862746602
 20
45.28435101599318
 30
0.0000000000000004
 10
126.4963178767119
 20
45.2446120277903
 30
0.0000000000000004
 10
126.4124182655505
 20
45.16651135481866
 30
0.0000000000000004
 10
126.3700475025771
 20
45.12810985855726
 30
0.0000000000000004
 10
126.1561229133397
 20
44.93929415325974
 30
0.0000000000000004
 10
125.9783751345533
 20
44.7984269568523
 30
0.0000000000000004
 10
125.610221732347
 20
44.5362026591069
 30
0.0000000000000004
 10
125.419813408072
 20
44.41484972071609
 30
0.0000000000000004
 10
125.026474735351
 20
44.19144459292565
 30
0.0000000000000005
 10
124.8235432535317
 20
44.08939415044424
 30
0.0000000000000005
 10
124.5619133312629
 20
43.97410878223889
 30
0.0000000000000005
 10
124.5091882248368
 20
43.9516668929243
 30
0.0000000000000005
 10
124.4029329904661
 20
43.90802392952167
 30
0.0000000000000005
 10
124.3496037949767
 20
43.8869060678888
 30
0.0000000000000005
 10
124.1892338669717
 20
43.82571249038408
 30
0.0000000000000005
 10
124.0817183696466
 20
43.78775757151767
 30
0.0000000000000005
 10
123.7574218316813
 20
43.6821482628626
 30
0.0000000000000005
 10
123.5388923533384
 20
43.62274173428367
 30
0.0000000000000005
 10
123.0974049768473
 20
43.52481875052007
 30
0.0000000000000005
 10
122.8744428039677
 20
43.48632246041819
 30
0.0000000000000005
 10
122.4243154056431
 20
43.42915683439513
 30
0.0000000000000005
 10
122.1971392967823
 20
43.41053883853755
 30
0.0000000000000005
 10
121.9680726853681
 20
43.40083886283784
 30
0.0000000000000005
  0
SPLINE
  5
111
330
1F
100
AcDbEntity
  8
1
  6
Continuous
 62
     1
370
    13
100
AcDbSpline
210
0.0
220
0.0
230
1.0
 70
     8
 71
     3
 72
     8
 73
     4
 74
     0
 42
0.000000001
 43
0.0000000001
 40
0.0
 40
0.0
 40
0.0
 40
0.0
 40
1.0
 40
1.0
 40
1.0
 40
1.0
 10
121.7741942650903
 20
58.01430196100029
 30
-0.0000000000000004
 10
121.7080900390569
 20
58.04309336287573
 30
-0.0000000000000004
 10
121.6417696170116
 20
58.07178310466396
 30
-0.0000000000000004
 10
121.5751591574426
 20
58.10033646447324
 30
-0.0000000000000004
  0
SPLINE
  5
112
330
1F
100
AcDbEntity
  8
1
  6
Continuous
 62
     1
370
    13
100
AcDbSpline
210
0.0
220
0.0
230
1.0
 70
     8
 71
     3
 72
     8
 73
     4
 74
     0
 42
0.000000001
 43
0.0000000001
 40
0.0
 40
0.0
 40
0.0
 40
0.0
 40
1.0
 40
1.0
 40
1.0
 40
1.0
 10
118.778714933327
 20
58.10033646447839
 30
-0.0000000000000004
 10
118.7121044737544
 20
58.0717831046676
 30
-0.0000000000000004
 10
118.6457840517055
 20
58.04309336287784
 30
-0.0000000000000004
 10
118.5796798256686
 20
58.01430196100085
 30
-0.0000000000000004
  0
SPLINE
  5
113
330
1F
100
AcDbEntity
  8
1
  6
Continuous
 62
     1
370
    13
100
AcDbSpline
210
0.0
220
0.0
230
1.0
 70
     8
 71
     3
 72
     8
 73
     4
 74
     0
 42
0.000000001
 43
0.0000000001
 40
0.0
 40
0.0
 40
0.0
 40
0.0
 40
1.0
 40
1.0
 40
1.0
 40
1.0
 10
118.5796798256673
 20
45.27883368775466
 30
0.0000000000000004
 10
118.6457840517007
 20
45.25004228587921
 30
0.0000000000000004
 10
118.712104473746
 20
45.22135254409098
 30
0.0000000000000004
 10
118.778714933315
 20
45.1927991842817
 30
0.0000000000000004
  0
SPLINE
  5
114
330
1F
100
AcDbEntity
  8
1
  6
Continuous
 62
     1
370
    13
100
AcDbSpline
210
0.0
220
0.0
230
1.0
 70
     8
 71
     3
 72
     8
 73
     4
 74
     0
 42
0.000000001
 43
0.0000000001
 40
0.0
 40
0.0
 40
0.0
 40
0.0
 40
1.0
 40
1.0
 40
1.0
 40
1.0
 10
121.5751591574306
 20
45.19279918427655
 30
0.0000000000000004
 10
121.6417696170031
 20
45.22135254408735
 30
0.0000000000000004
 10
121.708090039052
 20
45.25004228587711
 30
0.0000000000000004
 10
121.774194265089
 20
45.27883368775409
 30
0.0000000000000004
  0
SPLINE
  5
115
330
1F
100
AcDbEntity
  8
1
  6
Continuous
 62
     1
370
    13
100
AcDbSpline
210
0.0
220
0.0
230
1.0
 70
     8
 71
     3
 72
    29
 73
    25
 74
     0
 42
0.000000001
 43
0.0000000001
 40
0.0
 40
0.0
 40
0.0
 40
0.0
 40
0.1250000000000001
 40
0.1250000000000001
 40
0.2500000000000001
 40
0.2500000000000001
 40
0.3750000000000002
 40
0.3750000000000002
 40
0.4375
 40
0.4687499999999999
 40
0.4687499999999999
 40
0.4999999999999997
 40
0.4999999999999997
 40
0.6249999999999994
 40
0.6249999999999994
 40
0.7499999999999993
 40
0.7499999999999993
 40
0.8749999999999991
 40
0.8749999999999991
 40
0.9062499999999994
 40
0.9062499999999994
 40
0.9374999999999997
 40
0.9374999999999997
 40
1.0
 40
1.0
 40
1.0
 40
1.0
 10
121.8905213172565
 20
45.23222789450297
 30
0.0000000000000004
 10
122.0529890260218
 20
45.2544704506928
 30
0.0000000000000004
 10
122.2142483449824
 20
45.28114398808194
 30
0.0000000000000004
 10
122.5338666228533
 20
45.34542960386018
 30
0.0000000000000004
 10
122.6922241483767
 20
45.38302994877467
 30
0.0000000000000004
 10
123.005609407241
 20
45.47058652570878
 30
0.0000000000000004
 10
123.1606389992039
 20
45.52053114207631
 30
0.0000000000000004
 10
123.390398394398
 20
45.60557497416048
 30
0.0000000000000004
 10
123.5045820367358
 20
45.65062709950138
 30
0.0000000000000004
 10
123.6176656552512
 20
45.69963901475894
 30
0.0000000000000004
 10
123.6928037006755
 20
45.73321291728737
 30
0.0000000000000004
 10
123.730272904821
 20
45.75046276553042
 30
0.0000000000000004
 10
123.9161192264289
 20
45.83859374637485
 30
0.0000000000000004
 10
124.0606264670916
 20
45.91538185020202
 30
0.0000000000000004
 10
124.3411448395187
 20
46.08163740542614
 30
0.0000000000000003
 10
124.4771585559075
 20
46.17110120933845
 30
0.0000000000000003
 10
124.7403966494925
 20
46.36302900541275
 30
0.0000000000000003
 10
124.8676239313281
 20
46.46548899118822
 30
0.0000000000000003
 10
125.0208430234196
 20
46.60209350130871
 30
0.0000000000000003
 10
125.0511954209048
 20
46.62984185470816
 30
0.0000000000000003
 10
125.11130632157
 20
46.68620792876672
 30
0.0000000000000003
 10
125.1410889407043
 20
46.71484974375856
 30
0.0000000000000003
 10
125.2293266009095
 20
46.80190409050335
 30
0.0000000000000003
 10
125.286647294627
 20
46.86141419855843
 30
0.0000000000000003
 10
125.3424383872135
 20
46.92241754231575
 30
0.0000000000000003
  0
SPLINE
  5
116
330
1F
100
AcDbEntity
  8
1
  6
Continuous
 62
     1
370
    13
100
AcDbSpline
210
0.0
220
0.0
230
1.0
 70
     8
 71
     3
 72
    25
 73
    21
 74
     0
 42
0.000000001
 43
0.0000000001
 40
0.0
 40
0.0
 40
0.0
 40
0.0
 40
0.125000000000001
 40
0.125000000000001
 40
0.250000000000002
 40
0.250000000000002
 40
0.375000000000003
 40
0.375000000000003
 40
0.4375000000000037
 40
0.4375000000000037
 40
0.4687500000000039
 40
0.4687500000000039
 40
0.500000000000004
 40
0.7500000000000022
 40
0.7500000000000022
 40
0.8125000000000018
 40
0.8125000000000018
 40
0.8750000000000014
 40
0.8750000000000014
 40
1.0
 40
1.0
 40
1.0
 40
1.0
 10
125.3424383872135
 20
56.37071810643918
 30
-0.0000000000000003
 10
125.2309203305995
 20
56.49265467422067
 30
-0.0000000000000003
 10
125.1141519623333
 20
56.60771376983131
 30
-0.0000000000000003
 10
124.8708327659865
 20
56.82492076845615
 30
-0.0000000000000003
 10
124.7442781962866
 20
56.9270640426697
 30
-0.0000000000000003
 10
124.4817855460233
 20
57.11886665970352
 30
-0.0000000000000003
 10
124.345844956183
 20
57.20852292523936
 30
-0.0000000000000003
 10
124.1350321680099
 20
57.33374602070784
 30
-0.0000000000000003
 10
124.0636094265396
 20
57.37394147559591
 30
-0.0000000000000004
 10
123.954753811308
 20
57.43191411993777
 30
-0.0000000000000004
 10
123.9181400677135
 20
57.45087179188556
 30
-0.0000000000000004
 10
123.8446317176245
 20
57.48786720280803
 30
-0.0000000000000004
 10
123.5124375843589
 20
57.65029112853622
 30
-0.0000000000000004
 10
123.1678999374199
 20
57.77694734542825
 30
-0.0000000000000004
 10
122.774859778849
 20
57.88708070917406
 30
-0.0000000000000004
 10
122.6957408714034
 20
57.90757937720024
 30
-0.0000000000000004
 10
122.5365365974758
 20
57.94566633235952
 30
-0.0000000000000004
 10
122.456399571686
 20
57.96326440026604
 30
-0.0000000000000004
 10
122.2149860323951
 20
58.01188807138122
 30
-0.0000000000000004
 10
122.0531323182056
 20
58.03864558072107
 30
-0.0000000000000004
 10
121.8905213172586
 20
58.06090775425169
 30
-0.0000000000000004
  0
SPLINE
  5
117
330
1F
100
AcDbEntity
  8
1
  6
Continuous
 62
     1
370
    13
100
AcDbSpline
210
0.0
220
0.0
230
1.0
 70
     8
 71
     3
 72
    29
 73
    25
 74
     0
 42
0.000000001
 43
0.0000000001
 40
0.0
 40
0.0
 40
0.0
 40
0.0
 40
0.1249999999999996
 40
0.1249999999999996
 40
0.2499999999999991
 40
0.2499999999999991
 40
0.3749999999999987
 40
0.3749999999999987
 40
0.4374999999999986
 40
0.4687499999999984
 40
0.4687499999999984
 40
0.4999999999999983
 40
0.4999999999999983
 40
0.6249999999999986
 40
0.6249999999999986
 40
0.7499999999999988
 40
0.7499999999999988
 40
0.874999999999999
 40
0.874999999999999
 40
0.9062499999999992
 40
0.9062499999999992
 40
0.9374999999999994
 40
0.9374999999999994
 40
1.0
 40
1.0
 40
1.0
 40
1.0
 10
118.4633527735011
 20
58.06090775425197
 30
-0.0000000000000004
 10
118.3008850647358
 20
58.03866519806215
 30
-0.0000000000000004
 10
118.1396257457752
 20
58.01199166067301
 30
-0.0000000000000004
 10
117.8200074679043
 20
57.94770604489477
 30
-0.0000000000000004
 10
117.6616499423809
 20
57.91010569998027
 30
-0.0000000000000004
 10
117.3482646835166
 20
57.82254912304617
 30
-0.0000000000000004
 10
117.1932350915536
 20
57.77260450667863
 30
-0.0000000000000004
 10
116.9634756963595
 20
57.68756067459447
 30
-0.0000000000000004
 10
116.8492920540217
 20
57.64250854925357
 30
-0.0000000000000004
 10
116.7362084355063
 20
57.59349663399601
 30
-0.0000000000000004
 10
116.6610703900821
 20
57.55992273146758
 30
-0.0000000000000004
 10
116.6236011859366
 20
57.54267288322453
 30
-0.0000000000000004
 10
116.4377548643287
 20
57.45454190238009
 30
-0.0000000000000004
 10
116.2932476236659
 20
57.37775379855292
 30
-0.0000000000000004
 10
116.0127292512389
 20
57.2114982433288
 30
-0.0000000000000003
 10
115.8767155348501
 20
57.1220344394165
 30
-0.0000000000000003
 10
115.6134774412651
 20
56.9301066433422
 30
-0.0000000000000003
 10
115.4862501594295
 20
56.82764665756672
 30
-0.0000000000000003
 10
115.333031067338
 20
56.69104214744624
 30
-0.0000000000000003
 10
115.3026786698528
 20
56.66329379404678
 30
-0.0000000000000003
 10
115.2425677691876
 20
56.60692771998822
 30
-0.0000000000000003
 10
115.2127851500533
 20
56.57828590499638
 30
-0.0000000000000003
 10
115.124547489848
 20
56.4912315582516
 30
-0.0000000000000003
 10
115.0672267961305
 20
56.43172145019651
 30
-0.0000000000000003
 10
115.0114357035441
 20
56.37071810643919
 30
-0.0000000000000003
  0
SPLINE
  5
118
330
1F
100
AcDbEntity
  8
1
  6
Continuous
 62
     1
370
    13
100
AcDbSpline
210
0.0
220
0.0
230
1.0
 70
     8
 71
     3
 72
    25
 73
    21
 74
     0
 42
0.000000001
 43
0.0000000001
 40
0.0
 40
0.0
 40
0.0
 40
0.0
 40
0.1249999999999997
 40
0.1249999999999997
 40
0.2499999999999994
 40
0.2499999999999994
 40
0.3749999999999992
 40
0.3749999999999992
 40
0.4999999999999989
 40
0.4999999999999989
 40
0.5312499999999988
 40
0.5312499999999988
 40
0.5624999999999988
 40
0.6249999999999987
 40
0.6249999999999987
 40
0.7499999999999991
 40
0.7499999999999991
 40
0.8749999999999996
 40
0.8749999999999996
 40
1.0
 40
1.0
 40
1.0
 40
1.0
 10
118.3858014053868
 20
43.40083886283797
 30
0.0000000000000005
 10
118.1566639884301
 20
43.41054183684482
 30
0.0000000000000005
 10
117.9282438059219
 20
43.42921070880853
 30
0.0000000000000005
 10
117.4732518169398
 20
43.48722223750759
 30
0.0000000000000005
 10
117.2486395003834
 20
43.5262716629972
 30
0.0000000000000005
 10
116.8053853533977
 20
43.62516532562326
 30
0.0000000000000005
 10
116.58673775167
 20
43.68498946170631
 30
0.0000000000000005
 10
116.1555914022234
 20
43.82605378915378
 30
0.0000000000000005
 10
115.9430895665387
 20
43.90728322533643
 30
0.0000000000000005
 10
115.6814901585119
 20
44.02284888537815
 30
0.0000000000000005
 10
115.6293359823812
 20
44.0466819462537
 30
0.0000000000000005
 10
115.5255929910444
 20
44.09570265086693
 30
0.0000000000000005
 10
115.3713021393323
 20
44.17103807181186
 30
0.0000000000000005
 10
115.2209411754211
 20
44.25173066947075
 30
0.0000000000000005
 10
114.925385726104
 20
44.42015874737046
 30
0.0000000000000004
 10
114.7352244951236
 20
44.54181705383422
 30
0.0000000000000004
 10
114.368570810729
 20
44.80376678317533
 30
0.0000000000000004
 10
114.1920767550071
 20
44.94405602180586
 30
0.0000000000000004
 10
113.8531047028366
 20
45.24374102580917
 30
0.0000000000000004
 10
113.6906225045637
 20
45.40313106330448
 30
0.0000000000000004
 10
113.5355781773056
 20
45.57266031886955
 30
0.0000000000000004
  0
SPLINE
  5
119
330
1F
100
AcDbEntity
  8
1
  6
Continuous
 62
     1
370
    13
100
AcDbSpline
210
0.0
220
0.0
230
1.0
 70
     8
 71
     3
 72
    25
 73
    21
 74
     0
 42
0.000000001
 43
0.0000000001
 40
0.0
 40
0.0
 40
0.0
 40
0.0
 40
0.1250000000000008
 40
0.1250000000000008
 40
0.2500000000000016
 40
0.2500000000000016
 40
0.3750000000000024
 40
0.3750000000000024
 40
0.4375000000000027
 40
0.4375000000000027
 40
0.4687500000000027
 40
0.4687500000000027
 40
0.5000000000000027
 40
0.7500000000000021
 40
0.7500000000000021
 40
0.8125000000000017
 40
0.8125000000000017
 40
0.8750000000000012
 40
0.8750000000000012
 40
1.0
 40
1.0
 40
1.0
 40
1.0
 10
115.0114357035441
 20
46.92241754231576
 30
0.0000000000000003
 10
115.1229537601581
 20
46.80048097453427
 30
0.0000000000000003
 10
115.2397221284242
 20
46.68542187892363
 30
0.0000000000000003
 10
115.4830413247711
 20
46.4682148802988
 30
0.0000000000000003
 10
115.609595894471
 20
46.36607160608525
 30
0.0000000000000003
 10
115.8720885447343
 20
46.17426898905143
 30
0.0000000000000003
 10
116.0080291345746
 20
46.08461272351558
 30
0.0000000000000003
 10
116.2188419227477
 20
45.9593896280471
 30
0.0000000000000003
 10
116.290264664218
 20
45.91919417315903
 30
0.0000000000000004
 10
116.3991202794496
 20
45.86122152881718
 30
0.0000000000000004
 10
116.4357340230441
 20
45.84226385686938
 30
0.0000000000000004
 10
116.5092423731331
 20
45.80526844594691
 30
0.0000000000000004
 10
116.8414365063987
 20
45.64284452021873
 30
0.0000000000000004
 10
117.1859741533376
 20
45.51618830332669
 30
0.0000000000000004
 10
117.5790143119086
 20
45.40605493958088
 30
0.0000000000000004
 10
117.6581332193541
 20
45.38555627155471
 30
0.0000000000000004
 10
117.8173374932818
 20
45.34746931639542
 30
0.0000000000000004
 10
117.8974745190715
 20
45.3298712484889
 30
0.0000000000000004
 10
118.1388880583625
 20
45.28124757737372
 30
0.0000000000000004
 10
118.300741772552
 20
45.25449006803387
 30
0.0000000000000004
 10
118.463352773499
 20
45.23222789450326
 30
0.0000000000000004
  0
SPLINE
  5
11A
330
1F
100
AcDbEntity
  8
1
  6
Continuous
 62
     1
370
    13
100
AcDbSpline
210
0.0
220
0.0
230
1.0
 70
     8
 71
     3
 72
    33
 73
    29
 74
     0
 42
0.000000001
 43
0.0000000001
 40
0.0
 40
0.0
 40
0.0
 40
0.0
 40
0.1537077662960361
 40
0.1537077662960361
 40
0.2594942955090337
 40
0.2594942955090337
 40
0.3123875601155318
 40
0.3123875601155318
 40
0.3652808247220299
 40
0.3652808247220299
 40
0.4710673539350254
 40
0.4710673539350254
 40
0.5768538831480211
 40
0.5768538831480211
 40
0.6826404123610166
 40
0.6826404123610166
 40
0.7090870446642655
 40
0.7090870446642655
 40
0.7355336769675143
 40
0.7355336769675143
 40
0.7884269415740123
 40
0.7884269415740123
 40
0.8942134707870067
 40
0.8942134707870067
 40
0.9206601030902551
 40
0.9206601030902551
 40
0.9471067353935034
 40
1.0
 40
1.0
 40
1.0
 40
1.0
 10
125.608005880035
 20
47.64014352305566
 30
0.0000000000000002
 10
125.5403625558386
 20
47.60990329193101
 30
0.0000000000000002
 10
125.4702536400906
 20
47.58409984536768
 30
0.0000000000000002
 10
125.34733900828
 20
47.54724942593845
 30
0.0000000000000003
 10
125.2959412675167
 20
47.53411363247821
 30
0.0000000000000003
 10
125.216640165992
 20
47.51702253755178
 30
0.0000000000000003
 10
125.1898176370516
 20
47.51175732334507
 30
0.0000000000000003
 10
125.1354567742334
 20
47.50207423402735
 30
0.0000000000000003
 10
125.1079991429298
 20
47.49766996126559
 30
0.0000000000000003
 10
125.0247150020082
 20
47.48567516843568
 30
0.0000000000000003
 10
124.9679862423927
 20
47.47930503292883
 30
0.0000000000000003
 10
124.8515129920898
 20
47.46928065265359
 30
0.0000000000000003
 10
124.7917748681338
 20
47.46562929449524
 30
0.0000000000000003
 10
124.6683262372226
 20
47.460400885004
 30
0.0000000000000003
 10
124.6046288416242
 20
47.45882908734738
 30
0.0000000000000003
 10
124.5215305013589
 20
47.45761977716108
 30
0.0000000000000003
 10
124.5047347968058
 20
47.45741488142686
 30
0.0000000000000003
 10
124.4707557963802
 20
47.45706157087592
 30
0.0000000000000003
 10
124.4535382355332
 20
47.45691295763587
 30
0.0000000000000003
 10
124.4016250658725
 20
47.45652515494375
 30
0.0000000000000003
 10
124.3666095420169
 20
47.45634339972138
 30
0.0000000000000003
 10
124.2601660258285
 20
47.45575625461129
 30
0.0000000000000003
 10
124.1873503136368
 20
47.45531633796899
 30
0.0000000000000003
 10
124.0932874963093
 20
47.45368043453254
 30
0.0000000000000003
 10
124.0743642887519
 20
47.45329875191502
 30
0.0000000000000003
 10
124.0365924051778
 20
47.45241013037958
 30
0.0000000000000003
 10
123.9799183823187
 20
47.45088786033152
 30
0.0000000000000003
 10
123.9231975886507
 20
47.4487077229897
 30
0.0000000000000003
 10
123.8853644581596
 20
47.44690158160261
 30
0.0000000000000003
  0
SPLINE
  5
11B
330
1F
100
AcDbEntity
  8
1
  6
Continuous
 62
     1
370
    13
100
AcDbSpline
210
0.0
220
0.0
230
1.0
 70
     8
 71
     3
 72
    33
 73
    29
 74
     0
 42
0.000000001
 43
0.0000000001
 40
0.0
 40
0.0
 40
0.0
 40
0.0
 40
0.1310956521022296
 40
0.1310956521022296
 40
0.2397086955894529
 40
0.2397086955894529
 40
0.2940152173330643
 40
0.2940152173330643
 40
0.3483217390766755
 40
0.3483217390766755
 40
0.4569347825638963
 40
0.4569347825638963
 40
0.5655478260511171
 40
0.5655478260511171
 40
0.6741608695383381
 40
0.6741608695383381
 40
0.7013141304101433
 40
0.7013141304101433
 40
0.7284673912819485
 40
0.7284673912819485
 40
0.782773913025559
 40
0.782773913025559
 40
0.89138695651278
 40
0.89138695651278
 40
0.9185402173845851
 40
0.9185402173845851
 40
0.9456934782563904
 40
1.0
 40
1.0
 40
1.0
 40
1.0
 10
114.7683364927498
 20
55.65131813420014
 30
-0.0000000000000002
 10
114.8257803357395
 20
55.67614101498702
 30
-0.0000000000000002
 10
114.8849962554119
 20
55.69794248654346
 30
-0.0000000000000002
 10
114.996758002479
 20
55.73275840508578
 30
-0.0000000000000003
 10
115.0487181721898
 20
55.74663495769271
 30
-0.0000000000000003
 10
115.1289101647933
 20
55.76481687387331
 30
-0.0000000000000003
 10
115.1560558959249
 20
55.77044580725224
 30
-0.0000000000000003
 10
115.21097283394
 20
55.78082897634116
 30
-0.0000000000000003
 10
115.2387113027182
 20
55.78557865234558
 30
-0.0000000000000003
 10
115.3228449376854
 20
55.79859599711637
 30
-0.0000000000000003
 10
115.3801495567441
 20
55.80562965439088
 30
-0.0000000000000003
 10
115.4977821072812
 20
55.81694551263038
 30
-0.0000000000000003
 10
115.5581039572106
 20
55.82122488491905
 30
-0.0000000000000003
 10
115.6827061845085
 20
55.82767297966627
 30
-0.0000000000000003
 10
115.7469741954385
 20
55.82983663547805
 30
-0.0000000000000003
 10
115.8307486743496
 20
55.83175955240753
 30
-0.0000000000000003
 10
115.8476776517334
 20
55.83210583669976
 30
-0.0000000000000003
 10
115.8819180613752
 20
55.8327390507001
 30
-0.0000000000000003
 10
115.8992457705145
 20
55.8330261180045
 30
-0.0000000000000003
 10
115.9514268181112
 20
55.83382109823233
 30
-0.0000000000000003
 10
115.9866049147655
 20
55.83426495076625
 30
-0.0000000000000003
 10
116.0934741956232
 20
55.83560395234073
 30
-0.0000000000000003
 10
116.1664925254518
 20
55.83650015528733
 30
-0.0000000000000003
 10
116.2606424661898
 20
55.83861633056334
 30
-0.0000000000000003
 10
116.2795721543594
 20
55.83908916829003
 30
-0.0000000000000003
 10
116.3173523797701
 20
55.84014862734759
 30
-0.0000000000000003
 10
116.3740254236625
 20
55.84191050205109
 30
-0.0000000000000003
 10
116.4307038332829
 20
55.84427812656605
 30
-0.0000000000000003
 10
116.4684898421703
 20
55.84618511216159
 30
-0.0000000000000003
  0
SPLINE
  5
11C
330
1F
100
AcDbEntity
  8
1
  6
Continuous
 62
     1
370
    13
100
AcDbSpline
210
0.0
220
0.0
230
1.0
 70
     8
 71
     3
 72
    33
 73
    29
 74
     0
 42
0.000000001
 43
0.0000000001
 40
0.0
 40
0.0
 40
0.0
 40
0.0
 40
0.1056607425414439
 40
0.1056607425414439
 40
0.1584911138121655
 40
0.1584911138121655
 40
0.184906299447526
 40
0.184906299447526
 40
0.2113214850828866
 40
0.2641518563536066
 40
0.2641518563536066
 40
0.290567041988967
 40
0.290567041988967
 40
0.3169822276243275
 40
0.3169822276243275
 40
0.4226429701657728
 40
0.4226429701657728
 40
0.5283037127072181
 40
0.5283037127072181
 40
0.6339644552486633
 40
0.6339644552486633
 40
0.6867948265193867
 40
0.6867948265193867
 40
0.7396251977901102
 40
0.7396251977901102
 40
0.8452859403315569
 40
0.8452859403315569
 40
1.0
 40
1.0
 40
1.0
 40
1.0
 10
123.8853644581596
 20
55.84623406715233
 30
-0.0000000000000003
 10
123.960862927412
 20
55.84262979470094
 30
-0.0000000000000003
 10
124.0355093943076
 20
55.84048031971155
 30
-0.0000000000000003
 10
124.1463107843687
 20
55.83852347722686
 30
-0.0000000000000003
 10
124.1830505507401
 20
55.8380785697539
 30
-0.0000000000000003
 10
124.2378870666359
 20
55.83758289884226
 30
-0.0000000000000003
 10
124.2561495513909
 20
55.83744598200216
 30
-0.0000000000000003
 10
124.2924500161008
 20
55.83720567842909
 30
-0.0000000000000003
 10
124.3464259549162
 20
55.83689635468246
 30
-0.0000000000000003
 10
124.3990887445986
 20
55.8366254871624
 30
-0.0000000000000003
 10
124.4510011049365
 20
55.8362434101619
 30
-0.0000000000000003
 10
124.4682028611275
 20
55.83609740393985
 30
-0.0000000000000003
 10
124.502185034698
 20
55.83575004773558
 30
-0.0000000000000003
 10
124.5189826311723
 20
55.83554864109531
 30
-0.0000000000000003
 10
124.6020917688758
 20
55.83435918320926
 30
-0.0000000000000003
 10
124.6658019604058
 20
55.83281094520006
 30
-0.0000000000000003
 10
124.7892822392806
 20
55.82764142839093
 30
-0.0000000000000003
 10
124.849039279415
 20
55.82402540548775
 30
-0.0000000000000003
 10
124.9655560844534
 20
55.81408050981458
 30
-0.0000000000000003
 10
125.0223095029037
 20
55.80775453075815
 30
-0.0000000000000003
 10
125.1056350819973
 20
55.79583071549564
 30
-0.0000000000000003
 10
125.1331282065216
 20
55.79144714688754
 30
-0.0000000000000003
 10
125.1874710160791
 20
55.78182296931478
 30
-0.0000000000000003
 10
125.2142364383671
 20
55.77659805452674
 30
-0.0000000000000003
 10
125.293414017375
 20
55.75962851689709
 30
-0.0000000000000003
 10
125.3447129031042
 20
55.74658872207728
 30
-0.0000000000000003
 10
125.4679147617456
 20
55.70985563403585
 30
-0.0000000000000002
 10
125.5383524044934
 20
55.68403402115629
 30
-0.0000000000000002
 10
125.6062670973436
 20
55.6537676933857
 30
-0.0000000000000002
  0
SPLINE
  5
11D
330
1F
100
AcDbEntity
  8
1
  6
Continuous
 62
     1
370
    13
100
AcDbSpline
210
0.0
220
0.0
230
1.0
 70
     8
 71
     3
 72
    30
 73
    26
 74
     0
 42
0.000000001
 43
0.0000000001
 40
0.0
 40
0.0
 40
0.0
 40
0.0
 40
0.1083687628877109
 40
0.1083687628877109
 40
0.1625531443315671
 40
0.1625531443315671
 40
0.2167375257754233
 40
0.2167375257754233
 40
0.2709219072192796
 40
0.2709219072192796
 40
0.2980140979412066
 40
0.2980140979412066
 40
0.3251062886631336
 40
0.3251062886631336
 40
0.433475051550843
 40
0.433475051550843
 40
0.5418438144385523
 40
0.5418438144385523
 40
0.6502125773262617
 40
0.6502125773262617
 40
0.7585813402139711
 40
0.7585813402139711
 40
0.8669501031016804
 40
0.8669501031016804
 40
1.0
 40
1.0
 40
1.0
 40
1.0
 10
116.4684898421703
 20
47.44695053659336
 30
0.0000000000000003
 10
116.3930496581506
 20
47.45075785439396
 30
0.0000000000000003
 10
116.3183780853709
 20
47.45320419795176
 30
0.0000000000000003
 10
116.2074332537464
 20
47.45572354061287
 30
0.0000000000000003
 10
116.1706281372045
 20
47.45637530221597
 30
0.0000000000000003
 10
116.0973509259607
 20
47.45748349188128
 30
0.0000000000000003
 10
116.0607865196276
 20
47.45794132234388
 30
0.0000000000000003
 10
115.9890418441964
 20
47.45884010047771
 30
0.0000000000000003
 10
115.9537311441675
 20
47.45928350541949
 30
0.0000000000000003
 10
115.901491160067
 20
47.46007348399855
 30
0.0000000000000003
 10
115.8841739144515
 20
47.46035796663076
 30
0.0000000000000003
 10
115.8499424325477
 20
47.46098522582265
 30
0.0000000000000003
 10
115.8330168471336
 20
47.46132808436022
 30
0.0000000000000003
 10
115.749254676135
 20
47.46323175393355
 30
0.0000000000000003
 10
115.6849819997689
 20
47.46537320668299
 30
0.0000000000000003
 10
115.5603520114013
 20
47.4717671288106
 30
0.0000000000000003
 10
115.5000068880832
 20
47.47601455291404
 30
0.0000000000000003
 10
115.3823136722445
 20
47.4872607883236
 30
0.0000000000000003
 10
115.3249715952037
 20
47.4942567695453
 30
0.0000000000000003
 10
115.2127064124835
 20
47.51153605491791
 30
0.0000000000000003
 10
115.1576614112252
 20
47.52185573225498
 30
0.0000000000000003
 10
115.0508896940216
 20
47.54595476660912
 30
0.0000000000000003
 10
114.9990188764133
 20
47.5597462299207
 30
0.0000000000000003
 10
114.8864302707656
 20
47.59466018449547
 30
0.0000000000000002
 10
114.8263700034935
 20
47.61673195899114
 30
0.0000000000000002
 10
114.7681538026023
 20
47.64189689868512
 30
0.0000000000000002
  0
SPLINE
  5
11E
330
1F
100
AcDbEntity
  8
1
  6
Continuous
 62
     1
370
    13
100
AcDbSpline
210
0.0
220
0.0
230
1.0
 70
     8
 71
     3
 72
    20
 73
    16
 74
     0
 42
0.000000001
 43
0.0000000001
 40
0.0
 40
0.0
 40
0.0
 40
0.0
 40
0.1249999999999999
 40
0.1249999999999999
 40
0.2499999999999998
 40
0.2499999999999998
 40
0.3749999999999998
 40
0.3749999999999998
 40
0.4999999999999998
 40
0.4999999999999998
 40
0.6249999999999999
 40
0.6249999999999999
 40
0.75
 40
0.75
 40
1.0
 40
1.0
 40
1.0
 40
1.0
 10
116.4684898421703
 20
55.84618511216159
 30
-0.0000000000000003
 10
116.7775943852842
 20
55.84654266669745
 30
-0.0000000000000003
 10
117.0866533683337
 20
55.84536952752151
 30
-0.0000000000000003
 10
117.704724329968
 20
55.84144402754713
 30
-0.0000000000000003
 10
118.0137365512637
 20
55.83869982117409
 30
-0.0000000000000003
 10
118.6317623356779
 20
55.83325649000903
 30
-0.0000000000000003
 10
118.9407763791794
 20
55.83057350477524
 30
-0.0000000000000003
 10
119.558847398111
 20
55.82664992983577
 30
-0.0000000000000003
 10
119.8679048528691
 20
55.82542541971492
 30
-0.0000000000000003
 10
120.4860818755667
 20
55.8250633308087
 30
-0.0000000000000003
 10
120.7951392032719
 20
55.82592749391782
 30
-0.0000000000000003
 10
121.4132043929266
 20
55.8293138041324
 30
-0.0000000000000003
 10
121.7222126863524
 20
55.83182148909126
 30
-0.0000000000000003
 10
122.6492213293236
 20
55.83988878298512
 30
-0.0000000000000003
 10
123.267208342519
 20
55.8458953972108
 30
-0.0000000000000003
 10
123.8853644581596
 20
55.84623406715233
 30
-0.0000000000000003
  0
SPLINE
  5
11F
330
1F
100
AcDbEntity
  8
1
  6
Continuous
 62
     1
370
    13
100
AcDbSpline
210
0.0
220
0.0
230
1.0
 70
     8
 71
     3
 72
    20
 73
    16
 74
     0
 42
0.000000001
 43
0.0000000001
 40
0.0
 40
0.0
 40
0.0
 40
0.0
 40
0.25
 40
0.25
 40
0.375
 40
0.375
 40
0.5
 40
0.5
 40
0.625
 40
0.625
 40
0.75
 40
0.75
 40
0.875
 40
0.875
 40
1.0
 40
1.0
 40
1.0
 40
1.0
 10
123.8853644581596
 20
47.44690158160261
 30
0.0000000000000003
 10
123.2672083338775
 20
47.44724025154888
 30
0.0000000000000003
 10
122.6492213154301
 20
47.45324686590412
 30
0.0000000000000003
 10
121.7222126640136
 20
47.46131415985139
 30
0.0000000000000003
 10
121.4132043676637
 20
47.46382184480967
 30
0.0000000000000003
 10
120.7951391711861
 20
47.4672081549642
 30
0.0000000000000003
 10
120.4860818316345
 20
47.46807231800808
 30
0.0000000000000003
 10
119.8679048157505
 20
47.46771022893073
 30
0.0000000000000003
 10
119.5588473653532
 20
47.46648571875564
 30
0.0000000000000003
 10
118.9407763529675
 20
47.46256214376889
 30
0.0000000000000003
 10
118.6317623123889
 20
47.45987915854168
 30
0.0000000000000003
 10
118.0137365337822
 20
47.454435827426
 30
0.0000000000000003
 10
117.7047243153788
 20
47.45169162109609
 30
0.0000000000000003
 10
117.0866533602858
 20
47.44776612120138
 30
0.0000000000000003
 10
116.7775943808891
 20
47.44659298206258
 30
0.0000000000000003
 10
116.4684898421703
 20
47.44695053659336
 30
0.0000000000000003
  0
LINE
  5
120
330
1F
100
AcDbEntity
  8
1
  6
CENTER
 62
    30
370
    13
100
AcDbLine
 10
120.260666
 20
167.004755
 30
0.0
 11
120.260666
 21
249.004755
 31
0.0
  0
LINE
  5
121
330
1F
100
AcDbEntity
  8
1
  6
CENTER
 62
    30
370
    13
100
AcDbLine
 10
100.260666
 20
220.004755
 30
0.0
 11
142.260666
 21
220.004755
 31
0.0
  0
ENDSEC
  0
SECTION
  2
OBJECTS
  0
DICTIONARY
  5
C
330
0
100
AcDbDictionary
281
     1
  3
ACAD_DETAILVIEWSTYLE
350
176
  3
ACAD_GROUP
350
D
  3
ACAD_LAYOUT
350
1A
  3
ACAD_MATERIAL
350
43
  3
ACAD_MLEADERSTYLE
350
6B
  3
ACAD_MLINESTYLE
350
17
  3
ACAD_PLOTSETTINGS
350
19
  3
ACAD_PLOTSTYLENAME
350
E
  3
ACAD_SCALELIST
350
47
  3
ACAD_SECTIONVIEWSTYLE
350
177
  3
ACAD_TABLESTYLE
350
69
  3
ACAD_VISUALSTYLE
350
2A
  3
ACDB_RECOMPOSE_DATA
350
173
  3
AcDbVariableDictionary
350
133
  0
DICTIONARY
  5
131
330
8
100
AcDbDictionary
280
     1
281
     1
  3
ACAD_XREC_ROUNDTRIP
360
132
  0
DICTIONARY
  5
176
102
{ACAD_REACTORS
330
C
102
}
330
C
100
AcDbDictionary
281
     1
  0
DICTIONARY
  5
D
102
{ACAD_REACTORS
330
C
102
}
330
C
100
AcDbDictionary
281
     1
  0
DICTIONARY
  5
1A
102
{ACAD_REACTORS
330
C
102
}
330
C
100
AcDbDictionary
281
     1
  3
Layout1
350
1E
  3
Layout2
350
26
  3
Model
350
22
  0
DICTIONARY
  5
43
102
{ACAD_REACTORS
330
C
102
}
330
C
100
AcDbDictionary
281
     1
  3
ByBlock
350
45
  3
ByLayer
350
44
  3
Global
350
46
  0
DICTIONARY
  5
6B
102
{ACAD_REACTORS
330
C
102
}
330
C
100
AcDbDictionary
281
     1
  3
Standard
350
6C
  0
DICTIONARY
  5
17
102
{ACAD_REACTORS
330
C
102
}
330
C
100
AcDbDictionary
281
     1
  3
Standard
350
18
  0
DICTIONARY
  5
19
102
{ACAD_REACTORS
330
C
102
}
330
C
100
AcDbDictionary
281
     1
  0
ACDBDICTIONARYWDFLT
  5
E
102
{ACAD_REACTORS
330
C
102
}
330
C
100
AcDbDictionary
281
     1
  3
Normal
350
F
100
AcDbDictionaryWithDefault
340
F
  0
DICTIONARY
  5
47
102
{ACAD_REACTORS
330
C
102
}
330
C
100
AcDbDictionary
281
     1
  3
A0
350
48
  3
A1
350
49
  3
A2
350
4A
  3
A3
350
4B
  3
A4
350
4C
  3
A5
350
4D
  3
A6
350
4E
  3
A7
350
4F
  3
A8
350
50
  3
A9
350
51
  3
B0
350
52
  3
B1
350
53
  3
B2
350
54
  3
B3
350
55
  3
B4
350
56
  3
B5
350
57
  3
B6
350
58
  3
B7
350
59
  3
B8
350
5A
  3
B9
350
5B
  3
C0
350
5C
  3
C1
350
5D
  3
C2
350
5E
  3
C3
350
5F
  3
C4
350
60
  3
C5
350
61
  3
C6
350
62
  3
C7
350
63
  3
C8
350
64
  3
C9
350
65
  3
D0
350
66
  3
D1
350
67
  3
D2
350
68
  0
DICTIONARY
  5
177
102
{ACAD_REACTORS
330
C
102
}
330
C
100
AcDbDictionary
281
     1
  0
DICTIONARY
  5
69
102
{ACAD_REACTORS
330
C
102
}
330
C
100
AcDbDictionary
281
     1
  3
Standard
350
6A
  0
DICTIONARY
  5
2A
102
{ACAD_REACTORS
330
C
102
}
330
C
100
AcDbDictionary
281
     1
  3
2dWireframe
350
2F
  3
Basic
350
32
  3
Brighten
350
36
  3
ColorChange
350
3A
  3
Conceptual
350
34
  3
Dim
350
35
  3
EdgeColorOff
350
3D
  3
Facepattern
350
39
  3
Flat
350
2B
  3
FlatWithEdges
350
2C
  3
Gouraud
350
2D
  3
GouraudWithEdges
350
2E
  3
Hidden
350
31
  3
JitterOff
350
3B
  3
Linepattern
350
38
  3
OverhangOff
350
3C
  3
Realistic
350
33
  3
Shaded
350
42
  3
Shaded with edges
350
41
  3
Shades of Gray
350
3E
  3
Sketchy
350
3F
  3
Thicken
350
37
  3
Wireframe
350
30
  3
X-Ray
350
40
  0
XRECORD
  5
173
102
{ACAD_REACTORS
330
C
102
}
330
C
100
AcDbXrecord
280
     1
 90
        1
330
6A
  0
DICTIONARY
  5
133
102
{ACAD_REACTORS
330
C
102
}
330
C
100
AcDbDictionary
281
     1
  3
CANNOSCALE
350
134
  3
CMLEADERSTYLE
350
175
  3
CTABLESTYLE
350
174
  3
MSLTSCALE
350
135
  3
XCLIPFRAME
350
136
  0
XRECORD
  5
132
102
{ACAD_REACTORS
330
131
102
}
330
131
100
AcDbXrecord
280
     1
102
VTR_0.000_0.000_1.000_1.000_VISUALSTYLE
340
2F
102
VTR_0.000_0.000_1.000_1.000_GRIDDISPLAY
 70
     3
102
VTR_0.000_0.000_1.000_1.000_GRIDMAJOR
 70
     5
102
VTR_0.000_0.000_1.000_1.000_DEFAULTLIGHTING
280
     1
102
VTR_0.000_0.000_1.000_1.000_DEFAULTLIGHTINGTYPE
 70
     1
102
VTR_0.000_0.000_1.000_1.000_BRIGHTNESS
141
0.0
102
VTR_0.000_0.000_1.000_1.000_CONTRAST
142
0.0
102
VTR_0.000_0.000_0.500_1.000_VISUALSTYLE
340
2F
102
VTR_0.000_0.000_0.500_1.000_GRIDDISPLAY
 70
     3
102
VTR_0.000_0.000_0.500_1.000_GRIDMAJOR
 70
     5
102
VTR_0.000_0.000_0.500_1.000_DEFAULTLIGHTING
280
     1
102
VTR_0.000_0.000_0.500_1.000_DEFAULTLIGHTINGTYPE
 70
     1
102
VTR_0.000_0.000_0.500_1.000_BRIGHTNESS
141
0.0
102
VTR_0.000_0.000_0.500_1.000_CONTRAST
142
0.0
102
VTR_0.500_0.000_1.000_1.000_VISUALSTYLE
340
2F
102
VTR_0.500_0.000_1.000_1.000_GRIDDISPLAY
 70
     3
102
VTR_0.500_0.000_1.000_1.000_GRIDMAJOR
 70
     5
102
VTR_0.500_0.000_1.000_1.000_DEFAULTLIGHTING
280
     1
102
VTR_0.500_0.000_1.000_1.000_DEFAULTLIGHTINGTYPE
 70
     1
102
VTR_0.500_0.000_1.000_1.000_BRIGHTNESS
141
0.0
102
VTR_0.500_0.000_1.000_1.000_CONTRAST
142
0.0
102
VTR_0.000_0.500_1.000_1.000_VISUALSTYLE
340
2F
102
VTR_0.000_0.500_1.000_1.000_GRIDDISPLAY
 70
     3
102
VTR_0.000_0.500_1.000_1.000_GRIDMAJOR
 70
     5
102
VTR_0.000_0.500_1.000_1.000_DEFAULTLIGHTING
280
     1
102
VTR_0.000_0.500_1.000_1.000_DEFAULTLIGHTINGTYPE
 70
     1
102
VTR_0.000_0.500_1.000_1.000_BRIGHTNESS
141
0.0
102
VTR_0.000_0.500_1.000_1.000_CONTRAST
142
0.0
102
VTR_0.000_0.000_1.000_0.500_VISUALSTYLE
340
2F
102
VTR_0.000_0.000_1.000_0.500_GRIDDISPLAY
 70
     3
102
VTR_0.000_0.000_1.000_0.500_GRIDMAJOR
 70
     5
102
VTR_0.000_0.000_1.000_0.500_DEFAULTLIGHTING
280
     1
102
VTR_0.000_0.000_1.000_0.500_DEFAULTLIGHTINGTYPE
 70
     1
102
VTR_0.000_0.000_1.000_0.500_BRIGHTNESS
141
0.0
102
VTR_0.000_0.000_1.000_0.500_CONTRAST
142
0.0
102
VTR_0.000_0.500_0.500_1.000_VISUALSTYLE
340
2F
102
VTR_0.000_0.500_0.500_1.000_GRIDDISPLAY
 70
     3
102
VTR_0.000_0.500_0.500_1.000_GRIDMAJOR
 70
     5
102
VTR_0.000_0.500_0.500_1.000_DEFAULTLIGHTING
280
     1
102
VTR_0.000_0.500_0.500_1.000_DEFAULTLIGHTINGTYPE
 70
     1
102
VTR_0.000_0.500_0.500_1.000_BRIGHTNESS
141
0.0
102
VTR_0.000_0.500_0.500_1.000_CONTRAST
142
0.0
102
VTR_0.000_0.000_0.500_0.500_VISUALSTYLE
340
2F
102
VTR_0.000_0.000_0.500_0.500_GRIDDISPLAY
 70
     3
102
VTR_0.000_0.000_0.500_0.500_GRIDMAJOR
 70
     5
102
VTR_0.000_0.000_0.500_0.500_DEFAULTLIGHTING
280
     1
102
VTR_0.000_0.000_0.500_0.500_DEFAULTLIGHTINGTYPE
 70
     1
102
VTR_0.000_0.000_0.500_0.500_BRIGHTNESS
141
0.0
102
VTR_0.000_0.000_0.500_0.500_CONTRAST
142
0.0
102
VTR_0.500_0.000_1.000_0.500_VISUALSTYLE
340
2F
102
VTR_0.500_0.000_1.000_0.500_GRIDDISPLAY
 70
     3
102
VTR_0.500_0.000_1.000_0.500_GRIDMAJOR
 70
     5
102
VTR_0.500_0.000_1.000_0.500_DEFAULTLIGHTING
280
     1
102
VTR_0.500_0.000_1.000_0.500_DEFAULTLIGHTINGTYPE
 70
     1
102
VTR_0.500_0.000_1.000_0.500_BRIGHTNESS
141
0.0
102
VTR_0.500_0.000_1.000_0.500_CONTRAST
142
0.0
102
VTR_0.500_0.500_1.000_1.000_VISUALSTYLE
340
2F
102
VTR_0.500_0.500_1.000_1.000_GRIDDISPLAY
 70
     3
102
VTR_0.500_0.500_1.000_1.000_GRIDMAJOR
 70
     5
102
VTR_0.500_0.500_1.000_1.000_DEFAULTLIGHTING
280
     1
102
VTR_0.500_0.500_1.000_1.000_DEFAULTLIGHTINGTYPE
 70
     1
102
VTR_0.500_0.500_1.000_1.000_BRIGHTNESS
141
0.0
102
VTR_0.500_0.500_1.000_1.000_CONTRAST
142
0.0
102
VTR_0.000_0.500_0.333_1.000_VISUALSTYLE
340
2F
102
VTR_0.000_0.500_0.333_1.000_GRIDDISPLAY
 70
     3
102
VTR_0.000_0.500_0.333_1.000_GRIDMAJOR
 70
     5
102
VTR_0.000_0.500_0.333_1.000_DEFAULTLIGHTING
280
     1
102
VTR_0.000_0.500_0.333_1.000_DEFAULTLIGHTINGTYPE
 70
     1
102
VTR_0.000_0.500_0.333_1.000_BRIGHTNESS
141
0.0
102
VTR_0.000_0.500_0.333_1.000_CONTRAST
142
0.0
102
VTR_0.000_0.000_0.333_0.500_VISUALSTYLE
340
2F
102
VTR_0.000_0.000_0.333_0.500_GRIDDISPLAY
 70
     3
102
VTR_0.000_0.000_0.333_0.500_GRIDMAJOR
 70
     5
102
VTR_0.000_0.000_0.333_0.500_DEFAULTLIGHTING
280
     1
102
VTR_0.000_0.000_0.333_0.500_DEFAULTLIGHTINGTYPE
 70
     1
102
VTR_0.000_0.000_0.333_0.500_BRIGHTNESS
141
0.0
102
VTR_0.000_0.000_0.333_0.500_CONTRAST
142
0.0
102
VTR_0.333_0.500_0.667_1.000_VISUALSTYLE
340
2F
102
VTR_0.333_0.500_0.667_1.000_GRIDDISPLAY
 70
     3
102
VTR_0.333_0.500_0.667_1.000_GRIDMAJOR
 70
     5
102
VTR_0.333_0.500_0.667_1.000_DEFAULTLIGHTING
280
     1
102
VTR_0.333_0.500_0.667_1.000_DEFAULTLIGHTINGTYPE
 70
     1
102
VTR_0.333_0.500_0.667_1.000_BRIGHTNESS
141
0.0
102
VTR_0.333_0.500_0.667_1.000_CONTRAST
142
0.0
102
VTR_0.333_0.000_0.667_0.500_VISUALSTYLE
340
2F
102
VTR_0.333_0.000_0.667_0.500_GRIDDISPLAY
 70
     3
102
VTR_0.333_0.000_0.667_0.500_GRIDMAJOR
 70
     5
102
VTR_0.333_0.000_0.667_0.500_DEFAULTLIGHTING
280
     1
102
VTR_0.333_0.000_0.667_0.500_DEFAULTLIGHTINGTYPE
 70
     1
102
VTR_0.333_0.000_0.667_0.500_BRIGHTNESS
141
0.0
102
VTR_0.333_0.000_0.667_0.500_CONTRAST
142
0.0
102
VTR_0.667_0.500_1.000_1.000_VISUALSTYLE
340
2F
102
VTR_0.667_0.500_1.000_1.000_GRIDDISPLAY
 70
     3
102
VTR_0.667_0.500_1.000_1.000_GRIDMAJOR
 70
     5
102
VTR_0.667_0.500_1.000_1.000_DEFAULTLIGHTING
280
     1
102
VTR_0.667_0.500_1.000_1.000_DEFAULTLIGHTINGTYPE
 70
     1
102
VTR_0.667_0.500_1.000_1.000_BRIGHTNESS
141
0.0
102
VTR_0.667_0.500_1.000_1.000_CONTRAST
142
0.0
102
VTR_0.667_0.000_1.000_0.500_VISUALSTYLE
340
2F
102
VTR_0.667_0.000_1.000_0.500_GRIDDISPLAY
 70
     3
102
VTR_0.667_0.000_1.000_0.500_GRIDMAJOR
 70
     5
102
VTR_0.667_0.000_1.000_0.500_DEFAULTLIGHTING
280
     1
102
VTR_0.667_0.000_1.000_0.500_DEFAULTLIGHTINGTYPE
 70
     1
102
VTR_0.667_0.000_1.000_0.500_BRIGHTNESS
141
0.0
102
VTR_0.667_0.000_1.000_0.500_CONTRAST
142
0.0
  0
LAYOUT
  5
1E
102
{ACAD_REACTORS
330
1A
102
}
330
1A
100
AcDbPlotSettings
  1

  2
none_device
  4

  6

 40
0.0
 41
0.0
 42
0.0
 43
0.0
 44
0.0
 45
0.0
 46
0.0
 47
0.0
 48
0.0
 49
0.0
140
0.0
141
0.0
142
1.0
143
1.0
 70
   688
 72
     0
 73
     0
 74
     5
  7

 75
    16
 76
     0
 77
     2
 78
   300
147
1.0
148
0.0
149
0.0
100
AcDbLayout
  1
Layout1
 70
     1
 71
     1
 10
-0.5
 20
-0.5
 11
5.0
 21
5.0
 12
0.0
 22
0.0
 32
0.0
 14
-0.5
 24
-0.5
 34
-0.5
 15
5.0
 25
5.0
 35
5.0
146
0.0
 13
0.0
 23
0.0
 33
0.0
 16
1.0
 26
0.0
 36
0.0
 17
0.0
 27
1.0
 37
0.0
 76
     0
330
1B
  0
LAYOUT
  5
26
102
{ACAD_REACTORS
330
1A
102
}
330
1A
100
AcDbPlotSettings
  1

  2
none_device
  4

  6

 40
0.0
 41
0.0
 42
0.0
 43
0.0
 44
0.0
 45
0.0
 46
0.0
 47
0.0
 48
0.0
 49
0.0
140
0.0
141
0.0
142
1.0
143
1.0
 70
   688
 72
     0
 73
     0
 74
     5
  7

 75
    16
 76
     0
 77
     2
 78
   300
147
1.0
148
0.0
149
0.0
100
AcDbLayout
  1
Layout2
 70
     1
 71
     2
 10
0.0
 20
0.0
 11
0.0
 21
0.0
 12
0.0
 22
0.0
 32
0.0
 14
0.0
 24
0.0
 34
0.0
 15
0.0
 25
0.0
 35
0.0
146
0.0
 13
0.0
 23
0.0
 33
0.0
 16
1.0
 26
0.0
 36
0.0
 17
0.0
 27
1.0
 37
0.0
 76
     0
330
23
  0
LAYOUT
  5
22
102
{ACAD_REACTORS
330
1A
102
}
330
1A
100
AcDbPlotSettings
  1

  2
none_device
  4
Letter_(8.50_x_11.00_Inches)
  6

 40
6.35
 41
6.35
 42
6.350005
 43
6.350005
 44
215.9
 45
279.4
 46
0.0
 47
0.0
 48
0.0
 49
0.0
140
0.0
141
0.0
142
1.0
143
1.0
 70
  1712
 72
     0
 73
     0
 74
     0
  7

 75
     0
 76
     0
 77
     2
 78
   300
147
1.0
148
0.0
149
0.0
100
AcDbLayout
  1
Model
 70
     1
 71
     0
 10
-0.5
 20
-0.5
 11
5.0
 21
5.0
 12
0.0
 22
0.0
 32
0.0
 14
-0.5
 24
-0.5
 34
-0.5
 15
5.0
 25
5.0
 35
5.0
146
0.0
 13
0.0
 23
0.0
 33
0.0
 16
1.0
 26
0.0
 36
0.0
 17
0.0
 27
1.0
 37
0.0
 76
     0
330
1F
331
29
  0
MATERIAL
  5
45
102
{ACAD_REACTORS
330
43
102
}
102
{ACAD_XDICTIONARY
360
169
102
}
330
43
100
AcDbMaterial
  1
ByBlock
  0
MATERIAL
  5
44
102
{ACAD_REACTORS
330
43
102
}
102
{ACAD_XDICTIONARY
360
167
102
}
330
43
100
AcDbMaterial
  1
ByLayer
  0
MATERIAL
  5
46
102
{ACAD_REACTORS
330
43
102
}
102
{ACAD_XDICTIONARY
360
16B
102
}
330
43
100
AcDbMaterial
  1
Global
  0
MLEADERSTYLE
  5
6C
102
{ACAD_REACTORS
330
6B
102
}
102
{ACAD_XDICTIONARY
360
171
102
}
330
6B
100
AcDbMLeaderStyle
170
     2
171
     1
172
     0
 90
        2
 40
0.0
 41
0.0
173
     1
 91
-1056964608
340
14
 92
       -2
290
     1
 42
0.09
291
     1
 43
0.36
  3
Standard
341
0
 44
0.18
300

342
11
174
     1
178
     6
175
     1
176
     0
 93
-1056964608
 45
0.18
292
     0
297
     0
 46
0.18
343
0
 94
-1056964608
 47
1.0
 49
1.0
140
1.0
293
     1
141
0.0
294
     1
177
     0
142
1.0
295
     0
296
     0
143
0.125
1001
ACAD_MLEADERVER
1070
     2
  0
MLINESTYLE
  5
18
102
{ACAD_REACTORS
330
17
102
}
330
17
100
AcDbMlineStyle
  2
Standard
 70
     0
  3

 62
   256
 51
90.0
 52
90.0
 71
     2
 49
0.5
 62
   256
  6
BYLAYER
 49
-0.5
 62
   256
  6
BYLAYER
  0
ACDBPLACEHOLDER
  5
F
102
{ACAD_REACTORS
330
E
102
}
330
E
  0
SCALE
  5
48
102
{ACAD_REACTORS
330
47
102
}
330
47
100
AcDbScale
 70
     0
300
1:1
140
1.0
141
1.0
290
     1
  0
SCALE
  5
49
102
{ACAD_REACTORS
330
47
102
}
330
47
100
AcDbScale
 70
     0
300
1:2
140
1.0
141
2.0
290
     0
  0
SCALE
  5
4A
102
{ACAD_REACTORS
330
47
102
}
330
47
100
AcDbScale
 70
     0
300
1:4
140
1.0
141
4.0
290
     0
  0
SCALE
  5
4B
102
{ACAD_REACTORS
330
47
102
}
330
47
100
AcDbScale
 70
     0
300
1:5
140
1.0
141
5.0
290
     0
  0
SCALE
  5
4C
102
{ACAD_REACTORS
330
47
102
}
330
47
100
AcDbScale
 70
     0
300
1:8
140
1.0
141
8.0
290
     0
  0
SCALE
  5
4D
102
{ACAD_REACTORS
330
47
102
}
330
47
100
AcDbScale
 70
     0
300
1:10
140
1.0
141
10.0
290
     0
  0
SCALE
  5
4E
102
{ACAD_REACTORS
330
47
102
}
330
47
100
AcDbScale
 70
     0
300
1:16
140
1.0
141
16.0
290
     0
  0
SCALE
  5
4F
102
{ACAD_REACTORS
330
47
102
}
330
47
100
AcDbScale
 70
     0
300
1:20
140
1.0
141
20.0
290
     0
  0
SCALE
  5
50
102
{ACAD_REACTORS
330
47
102
}
330
47
100
AcDbScale
 70
     0
300
1:30
140
1.0
141
30.0
290
     0
  0
SCALE
  5
51
102
{ACAD_REACTORS
330
47
102
}
330
47
100
AcDbScale
 70
     0
300
1:40
140
1.0
141
40.0
290
     0
  0
SCALE
  5
52
102
{ACAD_REACTORS
330
47
102
}
330
47
100
AcDbScale
 70
     0
300
1:50
140
1.0
141
50.0
290
     0
  0
SCALE
  5
53
102
{ACAD_REACTORS
330
47
102
}
330
47
100
AcDbScale
 70
     0
300
1:100
140
1.0
141
100.0
290
     0
  0
SCALE
  5
54
102
{ACAD_REACTORS
330
47
102
}
330
47
100
AcDbScale
 70
     0
300
2:1
140
2.0
141
1.0
290
     0
  0
SCALE
  5
55
102
{ACAD_REACTORS
330
47
102
}
330
47
100
AcDbScale
 70
     0
300
4:1
140
4.0
141
1.0
290
     0
  0
SCALE
  5
56
102
{ACAD_REACTORS
330
47
102
}
330
47
100
AcDbScale
 70
     0
300
8:1
140
8.0
141
1.0
290
     0
  0
SCALE
  5
57
102
{ACAD_REACTORS
330
47
102
}
330
47
100
AcDbScale
 70
     0
300
10:1
140
10.0
141
1.0
290
     0
  0
SCALE
  5
58
102
{ACAD_REACTORS
330
47
102
}
330
47
100
AcDbScale
 70
     0
300
100:1
140
100.0
141
1.0
290
     0
  0
SCALE
  5
59
102
{ACAD_REACTORS
330
47
102
}
330
47
100
AcDbScale
 70
     0
300
1/128" = 1'-0"
140
0.007812
141
12.0
290
     0
  0
SCALE
  5
5A
102
{ACAD_REACTORS
330
47
102
}
330
47
100
AcDbScale
 70
     0
300
1/64" = 1'-0"
140
0.015625
141
12.0
290
     0
  0
SCALE
  5
5B
102
{ACAD_REACTORS
330
47
102
}
330
47
100
AcDbScale
 70
     0
300
1/32" = 1'-0"
140
0.03125
141
12.0
290
     0
  0
SCALE
  5
5C
102
{ACAD_REACTORS
330
47
102
}
330
47
100
AcDbScale
 70
     0
300
1/16" = 1'-0"
140
0.0625
141
12.0
290
     0
  0
SCALE
  5
5D
102
{ACAD_REACTORS
330
47
102
}
330
47
100
AcDbScale
 70
     0
300
3/32" = 1'-0"
140
0.09375
141
12.0
290
     0
  0
SCALE
  5
5E
102
{ACAD_REACTORS
330
47
102
}
330
47
100
AcDbScale
 70
     0
300
1/8" = 1'-0"
140
0.125
141
12.0
290
     0
  0
SCALE
  5
5F
102
{ACAD_REACTORS
330
47
102
}
330
47
100
AcDbScale
 70
     0
300
3/16" = 1'-0"
140
0.1875
141
12.0
290
     0
  0
SCALE
  5
60
102
{ACAD_REACTORS
330
47
102
}
330
47
100
AcDbScale
 70
     0
300
1/4" = 1'-0"
140
0.25
141
12.0
290
     0
  0
SCALE
  5
61
102
{ACAD_REACTORS
330
47
102
}
330
47
100
AcDbScale
 70
     0
300
3/8" = 1'-0"
140
0.375
141
12.0
290
     0
  0
SCALE
  5
62
102
{ACAD_REACTORS
330
47
102
}
330
47
100
AcDbScale
 70
     0
300
1/2" = 1'-0"
140
0.5
141
12.0
290
     0
  0
SCALE
  5
63
102
{ACAD_REACTORS
330
47
102
}
330
47
100
AcDbScale
 70
     0
300
3/4" = 1'-0"
140
0.75
141
12.0
290
     0
  0
SCALE
  5
64
102
{ACAD_REACTORS
330
47
102
}
330
47
100
AcDbScale
 70
     0
300
1" = 1'-0"
140
1.0
141
12.0
290
     0
  0
SCALE
  5
65
102
{ACAD_REACTORS
330
47
102
}
330
47
100
AcDbScale
 70
     0
300
1-1/2" = 1'-0"
140
1.5
141
12.0
290
     0
  0
SCALE
  5
66
102
{ACAD_REACTORS
330
47
102
}
330
47
100
AcDbScale
 70
     0
300
3" = 1'-0"
140
3.0
141
12.0
290
     0
  0
SCALE
  5
67
102
{ACAD_REACTORS
330
47
102
}
330
47
100
AcDbScale
 70
     0
300
6" = 1'-0"
140
6.0
141
12.0
290
     0
  0
SCALE
  5
68
102
{ACAD_REACTORS
330
47
102
}
330
47
100
AcDbScale
 70
     0
300
1'-0" = 1'-0"
140
12.0
141
12.0
290
     0
  0
TABLESTYLE
  5
6A
102
{ACAD_REACTORS
330
69
102
}
102
{ACAD_XDICTIONARY
360
16D
102
}
330
69
100
AcDbTableStyle
  3
Standard
 70
     0
 71
     0
 40
0.06
 41
0.06
280
     0
281
     0
  7
Standard
140
0.18
170
     2
 62
     0
 63
   257
283
     0
274
    -2
284
     1
 64
     0
275
    -2
285
     1
 65
     0
276
    -2
286
     1
 66
     0
277
    -2
287
     1
 67
     0
278
    -2
288
     1
 68
     0
279
    -2
289
     1
 69
     0
  7
Standard
140
0.25
170
     5
 62
     0
 63
   257
283
     0
274
    -2
284
     1
 64
     0
275
    -2
285
     1
 65
     0
276
    -2
286
     1
 66
     0
277
    -2
287
     1
 67
     0
278
    -2
288
     1
 68
     0
279
    -2
289
     1
 69
     0
  7
Standard
140
0.18
170
     5
 62
     0
 63
   257
283
     0
274
    -2
284
     1
 64
     0
275
    -2
285
     1
 65
     0
276
    -2
286
     1
 66
     0
277
    -2
287
     1
 67
     0
278
    -2
288
     1
 68
     0
279
    -2
289
     1
 69
     0
  0
VISUALSTYLE
  5
2F
102
{ACAD_REACTORS
330
2A
102
}
102
{ACAD_XDICTIONARY
360
13F
102
}
330
2A
100
AcDbVisualStyle
  2
2dWireframe
 70
     4
 71
     0
 72
     2
 73
     0
 90
        0
 40
0.6
 41
30.0
 62
     5
 63
     7
421
 16777215
 74
     1
 91
        4
 64
     7
 65
   257
 75
     1
175
     1
 42
1.0
 92
        0
 66
   257
 43
1.0
 76
     1
 77
     6
 78
     2
 67
     7
 79
     5
170
     0
171
     0
290
     0
174
     0
 93
        1
 44
0.0
173
     0
291
     0
 45
0.0
1001
ACAD
1000
AcDbSavedByObjectVersion
1070
     0
  0
VISUALSTYLE
  5
32
102
{ACAD_REACTORS
330
2A
102
}
102
{ACAD_XDICTIONARY
360
145
102
}
330
2A
100
AcDbVisualStyle
  2
Basic
 70
     7
 71
     1
 72
     0
 73
     1
 90
        0
 40
0.6
 41
30.0
 62
     5
 63
     7
421
 16777215
 74
     0
 91
        4
 64
     7
 65
   257
 75
     1
175
     1
 42
1.0
 92
        8
 66
     7
 43
1.0
 76
     1
 77
     6
 78
     2
 67
     7
 79
     5
170
     0
171
     0
290
     0
174
     0
 93
        1
 44
0.0
173
     0
291
     1
 45
0.0
1001
ACAD
1000
AcDbSavedByObjectVersion
1070
     0
  0
VISUALSTYLE
  5
36
102
{ACAD_REACTORS
330
2A
102
}
102
{ACAD_XDICTIONARY
360
14D
102
}
330
2A
100
AcDbVisualStyle
  2
Brighten
 70
    12
 71
     2
 72
     2
 73
     0
 90
        0
 40
0.6
 41
30.0
 62
     5
 63
     7
421
 16777215
 74
     1
 91
        4
 64
     7
 65
   257
 75
     1
175
     1
 42
1.0
 92
        8
 66
     7
 43
1.0
 76
     1
 77
     6
 78
     2
 67
     7
 79
     5
170
     0
171
     0
290
     0
174
     0
 93
        1
 44
50.0
173
     0
291
     1
 45
0.0
1001
ACAD
1000
AcDbSavedByObjectVersion
1070
     0
  0
VISUALSTYLE
  5
3A
102
{ACAD_REACTORS
330
2A
102
}
102
{ACAD_XDICTIONARY
360
155
102
}
330
2A
100
AcDbVisualStyle
  2
ColorChange
 70
    16
 71
     2
 72
     2
 73
     3
 90
        0
 40
0.6
 41
30.0
 62
     5
 63
     8
421
  8421504
 74
     1
 91
        4
 64
     7
 65
   257
 75
     1
175
     1
 42
1.0
 92
        8
 66
     8
424
  8421504
 43
1.0
 76
     1
 77
     6
 78
     2
 67
     7
 79
     5
170
     0
171
     0
290
     0
174
     0
 93
        1
 44
0.0
173
     0
291
     1
 45
0.0
1001
ACAD
1000
AcDbSavedByObjectVersion
1070
     0
  0
VISUALSTYLE
  5
34
102
{ACAD_REACTORS
330
2A
102
}
102
{ACAD_XDICTIONARY
360
149
102
}
330
2A
100
AcDbVisualStyle
  2
Conceptual
 70
     9
 71
     3
 72
     2
 73
     0
 90
        0
 40
0.6
 41
30.0
 62
     5
 63
     7
421
 16777215
 74
     2
 91
        2
 64
     7
 65
   257
 75
     1
175
     1
 42
179.0
 92
        8
 66
     7
 43
1.0
 76
     1
 77
     6
 78
     2
 67
     7
 79
     3
170
     0
171
     0
290
     0
174
     0
 93
        1
 44
0.0
173
     0
291
     0
 45
0.0
1001
ACAD
1000
AcDbSavedByObjectVersion
1070
     0
  0
VISUALSTYLE
  5
35
102
{ACAD_REACTORS
330
2A
102
}
102
{ACAD_XDICTIONARY
360
14B
102
}
330
2A
100
AcDbVisualStyle
  2
Dim
 70
    11
 71
     2
 72
     2
 73
     0
 90
        0
 40
0.6
 41
30.0
 62
     5
 63
     7
421
 16777215
 74
     1
 91
        4
 64
     7
 65
   257
 75
     1
175
     1
 42
1.0
 92
        8
 66
     7
 43
1.0
 76
     1
 77
     6
 78
     2
 67
     7
 79
     5
170
     0
171
     0
290
     0
174
     0
 93
        1
 44
-50.0
173
     0
291
     1
 45
0.0
1001
ACAD
1000
AcDbSavedByObjectVersion
1070
     0
  0
VISUALSTYLE
  5
3D
102
{ACAD_REACTORS
330
2A
102
}
102
{ACAD_XDICTIONARY
360
15B
102
}
330
2A
100
AcDbVisualStyle
  2
EdgeColorOff
 70
    22
 71
     2
 72
     2
 73
     0
 90
        0
 40
0.6
 41
30.0
 62
     5
 63
     7
421
 16777215
 74
     1
 91
        4
 64
     7
 65
   257
 75
     1
175
     1
 42
1.0
 92
        8
 66
     7
 43
1.0
 76
     1
 77
     6
 78
     2
 67
     7
 79
     5
170
     0
171
     0
290
     0
174
     0
 93
        1
 44
0.0
173
     0
291
     1
 45
0.0
1001
ACAD
1000
AcDbSavedByObjectVersion
1070
     0
  0
VISUALSTYLE
  5
39
102
{ACAD_REACTORS
330
2A
102
}
102
{ACAD_XDICTIONARY
360
153
102
}
330
2A
100
AcDbVisualStyle
  2
Facepattern
 70
    15
 71
     2
 72
     2
 73
     0
 90
        0
 40
0.6
 41
30.0
 62
     5
 63
     7
421
 16777215
 74
     1
 91
        4
 64
     7
 65
   257
 75
     1
175
     1
 42
1.0
 92
        8
 66
     7
 43
1.0
 76
     1
 77
     6
 78
     2
 67
     7
 79
     5
170
     0
171
     0
290
     0
174
     0
 93
        1
 44
0.0
173
     0
291
     1
 45
0.0
1001
ACAD
1000
AcDbSavedByObjectVersion
1070
     0
  0
VISUALSTYLE
  5
2B
102
{ACAD_REACTORS
330
2A
102
}
102
{ACAD_XDICTIONARY
360
137
102
}
330
2A
100
AcDbVisualStyle
  2
Flat
 70
     0
 71
     2
 72
     1
 73
     1
 90
        2
 40
0.6
 41
30.0
 62
     5
 63
     7
421
 16777215
 74
     0
 91
        0
 64
     7
 65
   257
 75
     1
175
     1
 42
1.0
 92
        8
 66
     7
 43
1.0
 76
     1
 77
     6
 78
     2
 67
     7
 79
     5
170
     0
171
     0
290
     0
174
     0
 93
       13
 44
0.0
173
     0
291
     1
 45
0.0
1001
ACAD
1000
AcDbSavedByObjectVersion
1070
     0
  0
VISUALSTYLE
  5
2C
102
{ACAD_REACTORS
330
2A
102
}
102
{ACAD_XDICTIONARY
360
139
102
}
330
2A
100
AcDbVisualStyle
  2
FlatWithEdges
 70
     1
 71
     2
 72
     1
 73
     1
 90
        2
 40
0.6
 41
30.0
 62
     5
 63
     7
421
 16777215
 74
     1
 91
        0
 64
     7
 65
   257
 75
     1
175
     1
 42
1.0
 92
        0
 66
   257
 43
1.0
 76
     1
 77
     6
 78
     2
 67
     7
 79
     5
170
     0
171
     0
290
     0
174
     0
 93
       13
 44
0.0
173
     0
291
     1
 45
0.0
1001
ACAD
1000
AcDbSavedByObjectVersion
1070
     0
  0
VISUALSTYLE
  5
2D
102
{ACAD_REACTORS
330
2A
102
}
102
{ACAD_XDICTIONARY
360
13B
102
}
330
2A
100
AcDbVisualStyle
  2
Gouraud
 70
     2
 71
     2
 72
     2
 73
     1
 90
        2
 40
0.6
 41
30.0
 62
     5
 63
     7
421
 16777215
 74
     0
 91
        0
 64
     7
 65
   257
 75
     1
175
     1
 42
1.0
 92
        0
 66
     7
 43
1.0
 76
     1
 77
     6
 78
     2
 67
     7
 79
     5
170
     0
171
     0
290
     0
174
     0
 93
       13
 44
0.0
173
     0
291
     1
 45
0.0
1001
ACAD
1000
AcDbSavedByObjectVersion
1070
     0
  0
VISUALSTYLE
  5
2E
102
{ACAD_REACTORS
330
2A
102
}
102
{ACAD_XDICTIONARY
360
13D
102
}
330
2A
100
AcDbVisualStyle
  2
GouraudWithEdges
 70
     3
 71
     2
 72
     2
 73
     1
 90
        2
 40
0.6
 41
30.0
 62
     5
 63
     7
421
 16777215
 74
     1
 91
        0
 64
     7
 65
   257
 75
     1
175
     1
 42
1.0
 92
        0
 66
   257
 43
1.0
 76
     1
 77
     6
 78
     2
 67
     7
 79
     5
170
     0
171
     0
290
     0
174
     0
 93
       13
 44
0.0
173
     0
291
     1
 45
0.0
1001
ACAD
1000
AcDbSavedByObjectVersion
1070
     0
  0
VISUALSTYLE
  5
31
102
{ACAD_REACTORS
330
2A
102
}
102
{ACAD_XDICTIONARY
360
143
102
}
330
2A
100
AcDbVisualStyle
  2
Hidden
 70
     6
 71
     1
 72
     2
 73
     2
 90
        0
 40
0.6
 41
30.0
 62
     5
 63
     7
421
 16777215
 74
     2
 91
        2
 64
     7
 65
   257
 75
     2
175
     1
 42
40.0
 92
        0
 66
   257
 43
1.0
 76
     1
 77
     6
 78
     2
 67
     7
 79
     3
170
     0
171
     0
290
     0
174
     0
 93
        1
 44
0.0
173
     0
291
     0
 45
0.0
1001
ACAD
1000
AcDbSavedByObjectVersion
1070
     0
  0
VISUALSTYLE
  5
3B
102
{ACAD_REACTORS
330
2A
102
}
102
{ACAD_XDICTIONARY
360
157
102
}
330
2A
100
AcDbVisualStyle
  2
JitterOff
 70
    20
 71
     2
 72
     2
 73
     0
 90
        0
 40
0.6
 41
30.0
 62
     5
 63
     7
421
 16777215
 74
     1
 91
        4
 64
     7
 65
   257
 75
     1
175
     1
 42
1.0
 92
       10
 66
     7
 43
1.0
 76
     1
 77
     6
 78
     2
 67
     7
 79
     5
170
     0
171
     0
290
     0
174
     0
 93
        1
 44
0.0
173
     0
291
     1
 45
0.0
1001
ACAD
1000
AcDbSavedByObjectVersion
1070
     0
  0
VISUALSTYLE
  5
38
102
{ACAD_REACTORS
330
2A
102
}
102
{ACAD_XDICTIONARY
360
151
102
}
330
2A
100
AcDbVisualStyle
  2
Linepattern
 70
    14
 71
     2
 72
     2
 73
     0
 90
        0
 40
0.6
 41
30.0
 62
     5
 63
     7
421
 16777215
 74
     1
 91
        4
 64
     7
 65
   257
 75
     7
175
     7
 42
1.0
 92
        8
 66
     7
 43
1.0
 76
     1
 77
     6
 78
     2
 67
     7
 79
     5
170
     0
171
     0
290
     0
174
     0
 93
        1
 44
0.0
173
     0
291
     1
 45
0.0
1001
ACAD
1000
AcDbSavedByObjectVersion
1070
     0
  0
VISUALSTYLE
  5
3C
102
{ACAD_REACTORS
330
2A
102
}
102
{ACAD_XDICTIONARY
360
159
102
}
330
2A
100
AcDbVisualStyle
  2
OverhangOff
 70
    21
 71
     2
 72
     2
 73
     0
 90
        0
 40
0.6
 41
30.0
 62
     5
 63
     7
421
 16777215
 74
     1
 91
        4
 64
     7
 65
   257
 75
     1
175
     1
 42
1.0
 92
        9
 66
     7
 43
1.0
 76
     1
 77
     6
 78
     2
 67
     7
 79
     5
170
     0
171
     0
290
     0
174
     0
 93
        1
 44
0.0
173
     0
291
     1
 45
0.0
1001
ACAD
1000
AcDbSavedByObjectVersion
1070
     0
  0
VISUALSTYLE
  5
33
102
{ACAD_REACTORS
330
2A
102
}
102
{ACAD_XDICTIONARY
360
147
102
}
330
2A
100
AcDbVisualStyle
  2
Realistic
 70
     8
 71
     2
 72
     3
 73
     0
 90
        2
 40
0.6
 41
30.0
 62
     5
 63
     7
421
 16777215
 74
     0
 91
        0
 64
     7
 65
   257
 75
     1
175
     1
 42
1.0
 92
        8
 66
   257
 43
1.0
 76
     1
 77
     6
 78
     2
 67
     7
 79
     3
170
     0
171
     0
290
     0
174
     0
 93
       13
 44
0.0
173
     0
291
     0
 45
0.0
1001
ACAD
1000
AcDbSavedByObjectVersion
1070
     0
  0
VISUALSTYLE
  5
42
102
{ACAD_REACTORS
330
2A
102
}
102
{ACAD_XDICTIONARY
360
165
102
}
330
2A
100
AcDbVisualStyle
  2
Shaded
 70
    27
 71
     2
 72
     2
 73
     1
 90
        2
 40
0.6
 41
30.0
 62
     5
 63
     7
421
 16777215
 74
     0
 91
        4
 64
     7
 65
   257
 75
     1
175
     1
 42
1.0
 92
        8
 66
   257
 43
1.0
 76
     1
 77
     6
 78
     2
 67
     8
425
  7895160
 79
     3
170
     0
171
     0
290
     0
174
     0
 93
        5
 44
0.0
173
     0
291
     0
 45
0.0
1001
ACAD
1000
AcDbSavedByObjectVersion
1070
     0
  0
VISUALSTYLE
  5
41
102
{ACAD_REACTORS
330
2A
102
}
102
{ACAD_XDICTIONARY
360
163
102
}
330
2A
100
AcDbVisualStyle
  2
Shaded with edges
 70
    26
 71
     2
 72
     2
 73
     1
 90
        2
 40
0.6
 41
30.0
 62
     5
 63
     7
421
 16777215
 74
     1
 91
       10
 64
     7
 65
   257
 75
     2
175
     1
 42
1.0
 92
        8
 66
   257
 43
1.0
 76
     1
 77
     6
 78
     2
 67
     7
 79
     3
170
     0
171
     0
290
     0
174
     0
 93
        5
 44
0.0
173
     0
291
     0
 45
0.0
1001
ACAD
1000
AcDbSavedByObjectVersion
1070
     0
  0
VISUALSTYLE
  5
3E
102
{ACAD_REACTORS
330
2A
102
}
102
{ACAD_XDICTIONARY
360
15D
102
}
330
2A
100
AcDbVisualStyle
  2
Shades of Gray
 70
    23
 71
     2
 72
     2
 73
     3
 90
        0
 40
0.6
 41
30.0
 62
     5
 63
     7
421
 16777215
 74
     2
 91
        2
 64
     7
 65
     7
 75
     1
175
     1
 42
40.0
 92
        8
 66
     7
 43
1.0
 76
     1
 77
     6
 78
     2
 67
     7
 79
     3
170
     0
171
     0
290
     0
174
     0
 93
        1
 44
0.0
173
     0
291
     0
 45
0.0
1001
ACAD
1000
AcDbSavedByObjectVersion
1070
     0
  0
VISUALSTYLE
  5
3F
102
{ACAD_REACTORS
330
2A
102
}
102
{ACAD_XDICTIONARY
360
15F
102
}
330
2A
100
AcDbVisualStyle
  2
Sketchy
 70
    24
 71
     1
 72
     2
 73
     2
 90
        0
 40
0.6
 41
30.0
 62
     5
 63
     7
421
 16777215
 74
     2
 91
        2
 64
     7
 65
     7
 75
     1
175
     1
 42
40.0
 92
       11
 66
     7
 43
1.0
 76
     1
 77
     6
 78
     2
 67
     7
 79
     6
170
     0
171
     0
290
     0
174
     0
 93
        1
 44
0.0
173
     0
291
     0
 45
0.0
1001
ACAD
1000
AcDbSavedByObjectVersion
1070
     0
  0
VISUALSTYLE
  5
37
102
{ACAD_REACTORS
330
2A
102
}
102
{ACAD_XDICTIONARY
360
14F
102
}
330
2A
100
AcDbVisualStyle
  2
Thicken
 70
    13
 71
     2
 72
     2
 73
     0
 90
        0
 40
0.6
 41
30.0
 62
     5
 63
     7
421
 16777215
 74
     1
 91
        4
 64
     7
 65
   257
 75
     1
175
     1
 42
1.0
 92
       12
 66
     7
 43
1.0
 76
     1
 77
     6
 78
     2
 67
     7
 79
     5
170
     0
171
     0
290
     0
174
     0
 93
        1
 44
0.0
173
     0
291
     1
 45
0.0
1001
ACAD
1000
AcDbSavedByObjectVersion
1070
     0
  0
VISUALSTYLE
  5
30
102
{ACAD_REACTORS
330
2A
102
}
102
{ACAD_XDICTIONARY
360
141
102
}
330
2A
100
AcDbVisualStyle
  2
Wireframe
 70
     5
 71
     0
 72
     2
 73
     0
 90
        0
 40
0.6
 41
30.0
 62
     5
 63
     7
421
 16777215
 74
     1
 91
        4
 64
     7
 65
   257
 75
     1
175
     1
 42
1.0
 92
        0
 66
   257
 43
1.0
 76
     1
 77
     6
 78
     2
 67
     7
 79
     3
170
     0
171
     0
290
     0
174
     0
 93
        1
 44
0.0
173
     0
291
     0
 45
0.0
1001
ACAD
1000
AcDbSavedByObjectVersion
1070
     0
  0
VISUALSTYLE
  5
40
102
{ACAD_REACTORS
330
2A
102
}
102
{ACAD_XDICTIONARY
360
161
102
}
330
2A
100
AcDbVisualStyle
  2
X-Ray
 70
    25
 71
     2
 72
     2
 73
     1
 90
        1
 40
0.5
 41
30.0
 62
     5
 63
     7
421
 16777215
 74
     1
 91
        0
 64
     7
 65
   257
 75
     1
175
     1
 42
1.0
 92
        8
 66
     7
 43
1.0
 76
     1
 77
     6
 78
     2
 67
     7
 79
     3
170
     0
171
     0
290
     0
174
     0
 93
       13
 44
0.0
173
     0
291
     0
 45
0.0
1001
ACAD
1000
AcDbSavedByObjectVersion
1070
     0
  0
DICTIONARYVAR
  5
134
102
{ACAD_REACTORS
330
133
102
}
330
133
100
DictionaryVariables
280
     0
  1
1:1
  0
DICTIONARYVAR
  5
175
102
{ACAD_REACTORS
330
133
102
}
330
133
100
DictionaryVariables
280
     0
  1
Standard
  0
DICTIONARYVAR
  5
174
102
{ACAD_REACTORS
330
133
102
}
330
133
100
DictionaryVariables
280
     0
  1
Standard
  0
DICTIONARYVAR
  5
135
102
{ACAD_REACTORS
330
133
102
}
330
133
100
DictionaryVariables
280
     0
  1
1
  0
DICTIONARYVAR
  5
136
102
{ACAD_REACTORS
330
133
102
}
330
133
100
DictionaryVariables
280
     0
  1
2
  0
DICTIONARY
  5
169
330
45
100
AcDbDictionary
280
     1
281
     1
  3
ACAD_XREC_ROUNDTRIP
360
16A
  0
DICTIONARY
  5
167
330
44
100
AcDbDictionary
280
     1
281
     1
  3
ACAD_XREC_ROUNDTRIP
360
168
  0
DICTIONARY
  5
16B
330
46
100
AcDbDictionary
280
     1
281
     1
  3
ACAD_XREC_ROUNDTRIP
360
16C
  0
DICTIONARY
  5
171
330
6C
100
AcDbDictionary
280
     1
281
     1
  3
ACAD_XREC_ROUNDTRIP
360
172
  0
DICTIONARY
  5
16D
330
6A
100
AcDbDictionary
280
     1
281
     1
  3
ACAD_ROUNDTRIP_2008_TABLESTYLE_CELLSTYLEMAP
360
16F
  3
ACAD_XREC_ROUNDTRIP
360
16E
  0
DICTIONARY
  5
13F
330
2F
100
AcDbDictionary
280
     1
281
     1
  3
ACAD_XREC_ROUNDTRIP
360
140
  0
DICTIONARY
  5
145
330
32
100
AcDbDictionary
280
     1
281
     1
  3
ACAD_XREC_ROUNDTRIP
360
146
  0
DICTIONARY
  5
14D
330
36
100
AcDbDictionary
280
     1
281
     1
  3
ACAD_XREC_ROUNDTRIP
360
14E
  0
DICTIONARY
  5
155
330
3A
100
AcDbDictionary
280
     1
281
     1
  3
ACAD_XREC_ROUNDTRIP
360
156
  0
DICTIONARY
  5
149
330
34
100
AcDbDictionary
280
     1
281
     1
  3
ACAD_XREC_ROUNDTRIP
360
14A
  0
DICTIONARY
  5
14B
330
35
100
AcDbDictionary
280
     1
281
     1
  3
ACAD_XREC_ROUNDTRIP
360
14C
  0
DICTIONARY
  5
15B
330
3D
100
AcDbDictionary
280
     1
281
     1
  3
ACAD_XREC_ROUNDTRIP
360
15C
  0
DICTIONARY
  5
153
330
39
100
AcDbDictionary
280
     1
281
     1
  3
ACAD_XREC_ROUNDTRIP
360
154
  0
DICTIONARY
  5
137
330
2B
100
AcDbDictionary
280
     1
281
     1
  3
ACAD_XREC_ROUNDTRIP
360
138
  0
DICTIONARY
  5
139
330
2C
100
AcDbDictionary
280
     1
281
     1
  3
ACAD_XREC_ROUNDTRIP
360
13A
  0
DICTIONARY
  5
13B
330
2D
100
AcDbDictionary
280
     1
281
     1
  3
ACAD_XREC_ROUNDTRIP
360
13C
  0
DICTIONARY
  5
13D
330
2E
100
AcDbDictionary
280
     1
281
     1
  3
ACAD_XREC_ROUNDTRIP
360
13E
  0
DICTIONARY
  5
143
330
31
100
AcDbDictionary
280
     1
281
     1
  3
ACAD_XREC_ROUNDTRIP
360
144
  0
DICTIONARY
  5
157
330
3B
100
AcDbDictionary
280
     1
281
     1
  3
ACAD_XREC_ROUNDTRIP
360
158
  0
DICTIONARY
  5
151
330
38
100
AcDbDictionary
280
     1
281
     1
  3
ACAD_XREC_ROUNDTRIP
360
152
  0
DICTIONARY
  5
159
330
3C
100
AcDbDictionary
280
     1
281
     1
  3
ACAD_XREC_ROUNDTRIP
360
15A
  0
DICTIONARY
  5
147
330
33
100
AcDbDictionary
280
     1
281
     1
  3
ACAD_XREC_ROUNDTRIP
360
148
  0
DICTIONARY
  5
165
330
42
100
AcDbDictionary
280
     1
281
     1
  3
ACAD_XREC_ROUNDTRIP
360
166
  0
DICTIONARY
  5
163
330
41
100
AcDbDictionary
280
     1
281
     1
  3
ACAD_XREC_ROUNDTRIP
360
164
  0
DICTIONARY
  5
15D
330
3E
100
AcDbDictionary
280
     1
281
     1
  3
ACAD_XREC_ROUNDTRIP
360
15E
  0
DICTIONARY
  5
15F
330
3F
100
AcDbDictionary
280
     1
281
     1
  3
ACAD_XREC_ROUNDTRIP
360
160
  0
DICTIONARY
  5
14F
330
37
100
AcDbDictionary
280
     1
281
     1
  3
ACAD_XREC_ROUNDTRIP
360
150
  0
DICTIONARY
  5
141
330
30
100
AcDbDictionary
280
     1
281
     1
  3
ACAD_XREC_ROUNDTRIP
360
142
  0
DICTIONARY
  5
161
330
40
100
AcDbDictionary
280
     1
281
     1
  3
ACAD_XREC_ROUNDTRIP
360
162
  0
XRECORD
  5
16A
102
{ACAD_REACTORS
330
169
102
}
330
169
100
AcDbXrecord
280
     1
102
MATERIAL
148
0.0
149
0.0
149
0.0
 93
        0
 94
      127
282
     0
 72
     1
 77
     1
171
     1
175
     1
179
     1
273
     0
  0
XRECORD
  5
168
102
{ACAD_REACTORS
330
167
102
}
330
167
100
AcDbXrecord
280
     1
102
MATERIAL
148
0.0
149
0.0
149
0.0
 93
        0
 94
      127
282
     0
 72
     1
 77
     1
171
     1
175
     1
179
     1
273
     0
  0
XRECORD
  5
16C
102
{ACAD_REACTORS
330
16B
102
}
330
16B
100
AcDbXrecord
280
     1
102
MATERIAL
148
0.0
149
0.0
149
0.0
 93
        0
 94
      127
282
     0
 72
     1
 77
     1
171
     1
175
     1
179
     1
273
     0
  0
XRECORD
  5
172
102
{ACAD_REACTORS
330
171
102
}
330
171
100
AcDbXrecord
280
     1
102
ACAD_ROUNDTRIP_2010_MLEADER_STYLE
  0
CELLSTYLEMAP
  5
16F
102
{ACAD_REACTORS
330
16D
102
}
330
16D
100
AcDbCellStyleMap
 90
        3
300
CELLSTYLE
  1
TABLEFORMAT_BEGIN
 90
        5
170
     1
 91
        0
 92
    32768
 62
   257
 93
        1
300
CONTENTFORMAT
  1
CONTENTFORMAT_BEGIN
 90
        0
 91
        0
 92
        4
 93
        0
300

 40
0.0
140
1.0
 94
        5
 62
     0
340
11
144
0.25
309
CONTENTFORMAT_END
171
     1
301
MARGIN
  1
CELLMARGIN_BEGIN
 40
0.06
 40
0.06
 40
0.06
 40
0.06
 40
0.06
 40
0.06
309
CELLMARGIN_END
 94
        6
 95
        1
302
GRIDFORMAT
  1
GRIDFORMAT_BEGIN
 90
        0
 91
        1
 62
     0
 92
       -2
340
14
 93
        0
 40
0.045
309
GRIDFORMAT_END
 95
        2
302
GRIDFORMAT
  1
GRIDFORMAT_BEGIN
 90
        0
 91
        1
 62
     0
 92
       -2
340
14
 93
        0
 40
0.045
309
GRIDFORMAT_END
 95
        4
302
GRIDFORMAT
  1
GRIDFORMAT_BEGIN
 90
        0
 91
        1
 62
     0
 92
       -2
340
14
 93
        0
 40
0.045
309
GRIDFORMAT_END
 95
        8
302
GRIDFORMAT
  1
GRIDFORMAT_BEGIN
 90
        0
 91
        1
 62
     0
 92
       -2
340
14
 93
        0
 40
0.045
309
GRIDFORMAT_END
 95
       16
302
GRIDFORMAT
  1
GRIDFORMAT_BEGIN
 90
        0
 91
        1
 62
     0
 92
       -2
340
14
 93
        0
 40
0.045
309
GRIDFORMAT_END
 95
       32
302
GRIDFORMAT
  1
GRIDFORMAT_BEGIN
 90
        0
 91
        1
 62
     0
 92
       -2
340
14
 93
        0
 40
0.045
309
GRIDFORMAT_END
309
TABLEFORMAT_END
  1
CELLSTYLE_BEGIN
 90
        1
 91
        1
300
_TITLE
309
CELLSTYLE_END
300
CELLSTYLE
  1
TABLEFORMAT_BEGIN
 90
        5
170
     1
 91
        0
 92
        0
 62
   257
 93
        1
300
CONTENTFORMAT
  1
CONTENTFORMAT_BEGIN
 90
        0
 91
        0
 92
        4
 93
        0
300

 40
0.0
140
1.0
 94
        5
 62
     0
340
11
144
0.18
309
CONTENTFORMAT_END
171
     1
301
MARGIN
  1
CELLMARGIN_BEGIN
 40
0.06
 40
0.06
 40
0.06
 40
0.06
 40
0.06
 40
0.06
309
CELLMARGIN_END
 94
        6
 95
        1
302
GRIDFORMAT
  1
GRIDFORMAT_BEGIN
 90
        0
 91
        1
 62
     0
 92
       -2
340
14
 93
        0
 40
0.045
309
GRIDFORMAT_END
 95
        2
302
GRIDFORMAT
  1
GRIDFORMAT_BEGIN
 90
        0
 91
        1
 62
     0
 92
       -2
340
14
 93
        0
 40
0.045
309
GRIDFORMAT_END
 95
        4
302
GRIDFORMAT
  1
GRIDFORMAT_BEGIN
 90
        0
 91
        1
 62
     0
 92
       -2
340
14
 93
        0
 40
0.045
309
GRIDFORMAT_END
 95
        8
302
GRIDFORMAT
  1
GRIDFORMAT_BEGIN
 90
        0
 91
        1
 62
     0
 92
       -2
340
14
 93
        0
 40
0.045
309
GRIDFORMAT_END
 95
       16
302
GRIDFORMAT
  1
GRIDFORMAT_BEGIN
 90
        0
 91
        1
 62
     0
 92
       -2
340
14
 93
        0
 40
0.045
309
GRIDFORMAT_END
 95
       32
302
GRIDFORMAT
  1
GRIDFORMAT_BEGIN
 90
        0
 91
        1
 62
     0
 92
       -2
340
14
 93
        0
 40
0.045
309
GRIDFORMAT_END
309
TABLEFORMAT_END
  1
CELLSTYLE_BEGIN
 90
        2
 91
        1
300
_HEADER
309
CELLSTYLE_END
300
CELLSTYLE
  1
TABLEFORMAT_BEGIN
 90
        5
170
     1
 91
        0
 92
        0
 62
   257
 93
        1
300
CONTENTFORMAT
  1
CONTENTFORMAT_BEGIN
 90
        0
 91
        0
 92
        4
 93
        0
300

 40
0.0
140
1.0
 94
        2
 62
     0
340
11
144
0.18
309
CONTENTFORMAT_END
171
     1
301
MARGIN
  1
CELLMARGIN_BEGIN
 40
0.06
 40
0.06
 40
0.06
 40
0.06
 40
0.06
 40
0.06
309
CELLMARGIN_END
 94
        6
 95
        1
302
GRIDFORMAT
  1
GRIDFORMAT_BEGIN
 90
        0
 91
        1
 62
     0
 92
       -2
340
14
 93
        0
 40
0.045
309
GRIDFORMAT_END
 95
        2
302
GRIDFORMAT
  1
GRIDFORMAT_BEGIN
 90
        0
 91
        1
 62
     0
 92
       -2
340
14
 93
        0
 40
0.045
309
GRIDFORMAT_END
 95
        4
302
GRIDFORMAT
  1
GRIDFORMAT_BEGIN
 90
        0
 91
        1
 62
     0
 92
       -2
340
14
 93
        0
 40
0.045
309
GRIDFORMAT_END
 95
        8
302
GRIDFORMAT
  1
GRIDFORMAT_BEGIN
 90
        0
 91
        1
 62
     0
 92
       -2
340
14
 93
        0
 40
0.045
309
GRIDFORMAT_END
 95
       16
302
GRIDFORMAT
  1
GRIDFORMAT_BEGIN
 90
        0
 91
        1
 62
     0
 92
       -2
340
14
 93
        0
 40
0.045
309
GRIDFORMAT_END
 95
       32
302
GRIDFORMAT
  1
GRIDFORMAT_BEGIN
 90
        0
 91
        1
 62
     0
 92
       -2
340
14
 93
        0
 40
0.045
309
GRIDFORMAT_END
309
TABLEFORMAT_END
  1
CELLSTYLE_BEGIN
 90
        3
 91
        2
300
_DATA
309
CELLSTYLE_END
  0
XRECORD
  5
16E
102
{ACAD_REACTORS
330
16D
102
}
330
16D
100
AcDbXrecord
280
     1
102
ACAD_ROUNDTRIP_PRE2007_TABLESTYLE
 90
        4
 91
        0
  1

 92
        4
 93
        0
  2

 94
        4
 95
        0
  3

  0
XRECORD
  5
140
102
{ACAD_REACTORS
330
13F
102
}
330
13F
100
AcDbXrecord
280
     1
102
RTVSPropertyOp0
 70
     1
102
RTVSPropertyOp1
 70
     1
102
RTVSPropertyOp2
 70
     1
102
RTVSPropertyOp3
 70
     1
102
RTVSPropertyOp4
 70
     1
102
RTVSPropertyOp5
 70
     1
102
RTVSPropertyOp6
 70
     1
102
RTVSPropertyOp7
 70
     1
102
RTVSPropertyOp8
 70
     1
102
RTVSPropertyOp9
 70
     1
102
RTVSPropertyOp10
 70
     1
102
RTVSPropertyOp11
 70
     1
102
RTVSPropertyOp12
 70
     1
102
RTVSPropertyOp13
 70
     1
102
RTVSPropertyOp14
 70
     1
102
RTVSPropertyOp15
 70
     1
102
RTVSPropertyOp16
 70
     1
102
RTVSPropertyOp17
 70
     1
102
RTVSPropertyOp18
 70
     1
102
RTVSPropertyOp19
 70
     1
102
RTVSPropertyOp20
 70
     1
102
RTVSPropertyOp21
 70
     1
102
RTVSPropertyOp22
 70
     1
102
RTVSPropertyOp23
 70
     1
102
RTVSPropertyOp24
 70
     1
102
RTVSPropertyOp25
 70
     1
102
RTVSPropertyOp26
 70
     1
102
RTVSPropertyOp27
 70
     1
102
RTVSPropertyOp28
 70
     1
102
RTVSPropertyOp29
 70
     1
102
RTVSPropertyOp30
 70
     1
102
RTVSPropertyOp31
 70
     1
102
RTVSPropertyOp32
 70
     1
102
RTVSPropertyOp33
 70
     1
102
RTVSPropertyOp34
 70
     1
102
RTVSPropertyOp35
 70
     1
102
RTVSPropertyOp36
 70
     1
102
RTVSPropertyOp37
 70
     1
102
RTVSPropertyOp38
 70
     1
102
RTVSPropertyOp39
 70
     1
102
RTVSPropertyOp40
 70
     1
102
RTVSPropertyOp41
 70
     1
102
RTVSPropertyOp42
 70
     1
102
RTVSPropertyOp43
 70
     1
102
RTVSPropertyOp44
 70
     1
102
RTVSPropertyOp45
 70
     1
102
RTVSPropertyOp46
 70
     1
102
RTVSPropertyOp47
 70
     1
102
RTVSPropertyOp48
 70
     1
102
RTVSPropertyOp49
 70
     1
102
RTVSPropertyOp50
 70
     1
102
RTVSPropertyOp51
 70
     0
102
RTVSPropertyOp52
 70
     0
102
RTVSPropertyOp53
 70
     1
102
RTVSPropertyOp54
 70
     1
102
RTVSPropertyOp55
 70
     1
102
RTVSPropertyOp56
 70
     1
102
RTVSPropertyOp57
 70
     1
102
RTVSPost2010Prop28
280
     1
102
RTVSPost2010PropOp28
 70
     1
102
RTVSPost2010Prop29
280
     1
102
RTVSPost2010PropOp29
 70
     1
102
RTVSPost2010Prop30
280
     0
102
RTVSPost2010PropOp30
 70
     1
102
RTVSPost2010Prop31
280
     0
102
RTVSPost2010PropOp31
 70
     1
102
RTVSPost2010Prop32
280
     0
102
RTVSPost2010PropOp32
 70
     1
102
RTVSPost2010Prop33
280
     0
102
RTVSPost2010PropOp33
 70
     1
102
RTVSPost2010Prop34
280
     0
102
RTVSPost2010PropOp34
 70
     1
102
RTVSPost2010Prop35
280
     0
102
RTVSPost2010PropOp35
 70
     1
102
RTVSPost2010Prop36
280
     0
102
RTVSPost2010PropOp36
 70
     1
102
RTVSPost2010Prop37
 90
       50
102
RTVSPost2010PropOp37
 70
     1
102
RTVSPost2010Prop38
140
0.0
102
RTVSPost2010PropOp38
 70
     1
102
RTVSPost2010Prop39
140
1.0
102
RTVSPost2010PropOp39
 70
     1
102
RTVSPost2010Prop40
 90
        0
102
RTVSPost2010PropOp40
 70
     1
102
RTVSPost2010Prop41ColorIndex
 90
       18
102
RTVSPost2010Prop41ColorRGB
 90
        0
102
RTVSPost2010PropOp41
 70
     1
102
RTVSPost2010Prop42
 90
       50
102
RTVSPost2010PropOp42
 70
     1
102
RTVSPost2010Prop43
 90
        3
102
RTVSPost2010PropOp43
 70
     1
102
RTVSPost2010Prop44ColorIndex
 90
        5
102
RTVSPost2010Prop44ColorRGB
 90
      255
102
RTVSPost2010PropOp44
 70
     1
102
RTVSPost2010Prop45
280
     0
102
RTVSPost2010PropOp45
 70
     1
102
RTVSPost2010Prop46
 90
       50
102
RTVSPost2010PropOp46
 70
     1
102
RTVSPost2010Prop47
 90
       50
102
RTVSPost2010PropOp47
 70
     1
102
RTVSPost2010Prop48
 90
       50
102
RTVSPost2010PropOp48
 70
     1
102
RTVSPost2010Prop49
280
     0
102
RTVSPost2010PropOp49
 70
     1
102
RTVSPost2010Prop50
 90
       50
102
RTVSPost2010PropOp50
 70
     1
102
RTVSPost2010Prop51ColorIndex
 90
      256
102
RTVSPost2010Prop51ColorRGB
 90
-16777216
102
RTVSPost2010PropOp51
 70
     0
102
RTVSPost2010Prop52
140
1.0
102
RTVSPost2010PropOp52
 70
     0
102
RTVSPost2010Prop53
 90
        2
102
RTVSPost2010PropOp53
 70
     1
102
RTVSPost2010Prop54
  1
strokes_ogs.tif
102
RTVSPost2010PropOp54
 70
     1
102
RTVSPost2010Prop55
280
     0
102
RTVSPost2010PropOp55
 70
     1
102
RTVSPost2010Prop56
140
1.0
102
RTVSPost2010PropOp56
 70
     1
102
RTVSPost2010Prop57
140
1.0
102
RTVSPost2010PropOp57
 70
     1
  0
XRECORD
  5
146
102
{ACAD_REACTORS
330
145
102
}
330
145
100
AcDbXrecord
280
     1
102
RTVSPropertyOp0
 70
     1
102
RTVSPropertyOp1
 70
     1
102
RTVSPropertyOp2
 70
     1
102
RTVSPropertyOp3
 70
     1
102
RTVSPropertyOp4
 70
     1
102
RTVSPropertyOp5
 70
     1
102
RTVSPropertyOp6
 70
     1
102
RTVSPropertyOp7
 70
     1
102
RTVSPropertyOp8
 70
     1
102
RTVSPropertyOp9
 70
     1
102
RTVSPropertyOp10
 70
     1
102
RTVSPropertyOp11
 70
     1
102
RTVSPropertyOp12
 70
     1
102
RTVSPropertyOp13
 70
     1
102
RTVSPropertyOp14
 70
     1
102
RTVSPropertyOp15
 70
     1
102
RTVSPropertyOp16
 70
     1
102
RTVSPropertyOp17
 70
     1
102
RTVSPropertyOp18
 70
     1
102
RTVSPropertyOp19
 70
     1
102
RTVSPropertyOp20
 70
     1
102
RTVSPropertyOp21
 70
     1
102
RTVSPropertyOp22
 70
     1
102
RTVSPropertyOp23
 70
     1
102
RTVSPropertyOp24
 70
     1
102
RTVSPropertyOp25
 70
     1
102
RTVSPropertyOp26
 70
     1
102
RTVSPropertyOp27
 70
     1
102
RTVSPropertyOp28
 70
     1
102
RTVSPropertyOp29
 70
     1
102
RTVSPropertyOp30
 70
     1
102
RTVSPropertyOp31
 70
     1
102
RTVSPropertyOp32
 70
     1
102
RTVSPropertyOp33
 70
     1
102
RTVSPropertyOp34
 70
     1
102
RTVSPropertyOp35
 70
     1
102
RTVSPropertyOp36
 70
     1
102
RTVSPropertyOp37
 70
     1
102
RTVSPropertyOp38
 70
     1
102
RTVSPropertyOp39
 70
     1
102
RTVSPropertyOp40
 70
     1
102
RTVSPropertyOp41
 70
     1
102
RTVSPropertyOp42
 70
     1
102
RTVSPropertyOp43
 70
     1
102
RTVSPropertyOp44
 70
     1
102
RTVSPropertyOp45
 70
     1
102
RTVSPropertyOp46
 70
     1
102
RTVSPropertyOp47
 70
     1
102
RTVSPropertyOp48
 70
     1
102
RTVSPropertyOp49
 70
     1
102
RTVSPropertyOp50
 70
     1
102
RTVSPropertyOp51
 70
     0
102
RTVSPropertyOp52
 70
     0
102
RTVSPropertyOp53
 70
     1
102
RTVSPropertyOp54
 70
     1
102
RTVSPropertyOp55
 70
     1
102
RTVSPropertyOp56
 70
     1
102
RTVSPropertyOp57
 70
     1
102
RTVSPost2010Prop28
280
     0
102
RTVSPost2010PropOp28
 70
     1
102
RTVSPost2010Prop29
280
     1
102
RTVSPost2010PropOp29
 70
     1
102
RTVSPost2010Prop30
280
     1
102
RTVSPost2010PropOp30
 70
     1
102
RTVSPost2010Prop31
280
     0
102
RTVSPost2010PropOp31
 70
     1
102
RTVSPost2010Prop32
280
     0
102
RTVSPost2010PropOp32
 70
     1
102
RTVSPost2010Prop33
280
     0
102
RTVSPost2010PropOp33
 70
     1
102
RTVSPost2010Prop34
280
     0
102
RTVSPost2010PropOp34
 70
     1
102
RTVSPost2010Prop35
280
     0
102
RTVSPost2010PropOp35
 70
     1
102
RTVSPost2010Prop36
280
     0
102
RTVSPost2010PropOp36
 70
     1
102
RTVSPost2010Prop37
 90
       50
102
RTVSPost2010PropOp37
 70
     1
102
RTVSPost2010Prop38
140
0.0
102
RTVSPost2010PropOp38
 70
     1
102
RTVSPost2010Prop39
140
1.0
102
RTVSPost2010PropOp39
 70
     1
102
RTVSPost2010Prop40
 90
        0
102
RTVSPost2010PropOp40
 70
     1
102
RTVSPost2010Prop41ColorIndex
 90
       18
102
RTVSPost2010Prop41ColorRGB
 90
        0
102
RTVSPost2010PropOp41
 70
     1
102
RTVSPost2010Prop42
 90
       50
102
RTVSPost2010PropOp42
 70
     1
102
RTVSPost2010Prop43
 90
        3
102
RTVSPost2010PropOp43
 70
     1
102
RTVSPost2010Prop44ColorIndex
 90
        5
102
RTVSPost2010Prop44ColorRGB
 90
      255
102
RTVSPost2010PropOp44
 70
     1
102
RTVSPost2010Prop45
280
     0
102
RTVSPost2010PropOp45
 70
     1
102
RTVSPost2010Prop46
 90
       50
102
RTVSPost2010PropOp46
 70
     1
102
RTVSPost2010Prop47
 90
       50
102
RTVSPost2010PropOp47
 70
     1
102
RTVSPost2010Prop48
 90
       50
102
RTVSPost2010PropOp48
 70
     1
102
RTVSPost2010Prop49
280
     0
102
RTVSPost2010PropOp49
 70
     1
102
RTVSPost2010Prop50
 90
       50
102
RTVSPost2010PropOp50
 70
     1
102
RTVSPost2010Prop51ColorIndex
 90
      256
102
RTVSPost2010Prop51ColorRGB
 90
-16777216
102
RTVSPost2010PropOp51
 70
     0
102
RTVSPost2010Prop52
140
1.0
102
RTVSPost2010PropOp52
 70
     0
102
RTVSPost2010Prop53
 90
        2
102
RTVSPost2010PropOp53
 70
     1
102
RTVSPost2010Prop54
  1
strokes_ogs.tif
102
RTVSPost2010PropOp54
 70
     1
102
RTVSPost2010Prop55
280
     0
102
RTVSPost2010PropOp55
 70
     1
102
RTVSPost2010Prop56
140
1.0
102
RTVSPost2010PropOp56
 70
     1
102
RTVSPost2010Prop57
140
1.0
102
RTVSPost2010PropOp57
 70
     1
  0
XRECORD
  5
14E
102
{ACAD_REACTORS
330
14D
102
}
330
14D
100
AcDbXrecord
280
     1
102
RTVSPropertyOp0
 70
     1
102
RTVSPropertyOp1
 70
     1
102
RTVSPropertyOp2
 70
     1
102
RTVSPropertyOp3
 70
     1
102
RTVSPropertyOp4
 70
     1
102
RTVSPropertyOp5
 70
     1
102
RTVSPropertyOp6
 70
     1
102
RTVSPropertyOp7
 70
     1
102
RTVSPropertyOp8
 70
     1
102
RTVSPropertyOp9
 70
     1
102
RTVSPropertyOp10
 70
     1
102
RTVSPropertyOp11
 70
     1
102
RTVSPropertyOp12
 70
     1
102
RTVSPropertyOp13
 70
     1
102
RTVSPropertyOp14
 70
     1
102
RTVSPropertyOp15
 70
     1
102
RTVSPropertyOp16
 70
     1
102
RTVSPropertyOp17
 70
     1
102
RTVSPropertyOp18
 70
     1
102
RTVSPropertyOp19
 70
     1
102
RTVSPropertyOp20
 70
     1
102
RTVSPropertyOp21
 70
     1
102
RTVSPropertyOp22
 70
     1
102
RTVSPropertyOp23
 70
     1
102
RTVSPropertyOp24
 70
     1
102
RTVSPropertyOp25
 70
     1
102
RTVSPropertyOp26
 70
     1
102
RTVSPropertyOp27
 70
     1
102
RTVSPropertyOp28
 70
     1
102
RTVSPropertyOp29
 70
     1
102
RTVSPropertyOp30
 70
     1
102
RTVSPropertyOp31
 70
     1
102
RTVSPropertyOp32
 70
     1
102
RTVSPropertyOp33
 70
     1
102
RTVSPropertyOp34
 70
     1
102
RTVSPropertyOp35
 70
     1
102
RTVSPropertyOp36
 70
     1
102
RTVSPropertyOp37
 70
     1
102
RTVSPropertyOp38
 70
     1
102
RTVSPropertyOp39
 70
     1
102
RTVSPropertyOp40
 70
     1
102
RTVSPropertyOp41
 70
     1
102
RTVSPropertyOp42
 70
     1
102
RTVSPropertyOp43
 70
     1
102
RTVSPropertyOp44
 70
     1
102
RTVSPropertyOp45
 70
     1
102
RTVSPropertyOp46
 70
     1
102
RTVSPropertyOp47
 70
     1
102
RTVSPropertyOp48
 70
     1
102
RTVSPropertyOp49
 70
     1
102
RTVSPropertyOp50
 70
     1
102
RTVSPropertyOp51
 70
     0
102
RTVSPropertyOp52
 70
     0
102
RTVSPropertyOp53
 70
     1
102
RTVSPropertyOp54
 70
     1
102
RTVSPropertyOp55
 70
     1
102
RTVSPropertyOp56
 70
     1
102
RTVSPropertyOp57
 70
     1
102
RTVSPost2010Prop28
280
     0
102
RTVSPost2010PropOp28
 70
     1
102
RTVSPost2010Prop29
280
     1
102
RTVSPost2010PropOp29
 70
     1
102
RTVSPost2010Prop30
280
     1
102
RTVSPost2010PropOp30
 70
     1
102
RTVSPost2010Prop31
280
     0
102
RTVSPost2010PropOp31
 70
     1
102
RTVSPost2010Prop32
280
     0
102
RTVSPost2010PropOp32
 70
     1
102
RTVSPost2010Prop33
280
     0
102
RTVSPost2010PropOp33
 70
     1
102
RTVSPost2010Prop34
280
     0
102
RTVSPost2010PropOp34
 70
     1
102
RTVSPost2010Prop35
280
     0
102
RTVSPost2010PropOp35
 70
     1
102
RTVSPost2010Prop36
280
     0
102
RTVSPost2010PropOp36
 70
     1
102
RTVSPost2010Prop37
 90
       50
102
RTVSPost2010PropOp37
 70
     1
102
RTVSPost2010Prop38
140
0.0
102
RTVSPost2010PropOp38
 70
     1
102
RTVSPost2010Prop39
140
1.0
102
RTVSPost2010PropOp39
 70
     1
102
RTVSPost2010Prop40
 90
        0
102
RTVSPost2010PropOp40
 70
     1
102
RTVSPost2010Prop41ColorIndex
 90
       18
102
RTVSPost2010Prop41ColorRGB
 90
        0
102
RTVSPost2010PropOp41
 70
     1
102
RTVSPost2010Prop42
 90
       50
102
RTVSPost2010PropOp42
 70
     1
102
RTVSPost2010Prop43
 90
        3
102
RTVSPost2010PropOp43
 70
     1
102
RTVSPost2010Prop44ColorIndex
 90
        5
102
RTVSPost2010Prop44ColorRGB
 90
      255
102
RTVSPost2010PropOp44
 70
     1
102
RTVSPost2010Prop45
280
     0
102
RTVSPost2010PropOp45
 70
     1
102
RTVSPost2010Prop46
 90
       50
102
RTVSPost2010PropOp46
 70
     1
102
RTVSPost2010Prop47
 90
       50
102
RTVSPost2010PropOp47
 70
     1
102
RTVSPost2010Prop48
 90
       50
102
RTVSPost2010PropOp48
 70
     1
102
RTVSPost2010Prop49
280
     0
102
RTVSPost2010PropOp49
 70
     1
102
RTVSPost2010Prop50
 90
       50
102
RTVSPost2010PropOp50
 70
     1
102
RTVSPost2010Prop51ColorIndex
 90
      256
102
RTVSPost2010Prop51ColorRGB
 90
-16777216
102
RTVSPost2010PropOp51
 70
     0
102
RTVSPost2010Prop52
140
1.0
102
RTVSPost2010PropOp52
 70
     0
102
RTVSPost2010Prop53
 90
        2
102
RTVSPost2010PropOp53
 70
     1
102
RTVSPost2010Prop54
  1
strokes_ogs.tif
102
RTVSPost2010PropOp54
 70
     1
102
RTVSPost2010Prop55
280
     0
102
RTVSPost2010PropOp55
 70
     1
102
RTVSPost2010Prop56
140
1.0
102
RTVSPost2010PropOp56
 70
     1
102
RTVSPost2010Prop57
140
1.0
102
RTVSPost2010PropOp57
 70
     1
  0
XRECORD
  5
156
102
{ACAD_REACTORS
330
155
102
}
330
155
100
AcDbXrecord
280
     1
102
RTVSPropertyOp0
 70
     1
102
RTVSPropertyOp1
 70
     1
102
RTVSPropertyOp2
 70
     1
102
RTVSPropertyOp3
 70
     1
102
RTVSPropertyOp4
 70
     1
102
RTVSPropertyOp5
 70
     1
102
RTVSPropertyOp6
 70
     1
102
RTVSPropertyOp7
 70
     1
102
RTVSPropertyOp8
 70
     1
102
RTVSPropertyOp9
 70
     1
102
RTVSPropertyOp10
 70
     1
102
RTVSPropertyOp11
 70
     1
102
RTVSPropertyOp12
 70
     1
102
RTVSPropertyOp13
 70
     1
102
RTVSPropertyOp14
 70
     1
102
RTVSPropertyOp15
 70
     1
102
RTVSPropertyOp16
 70
     1
102
RTVSPropertyOp17
 70
     1
102
RTVSPropertyOp18
 70
     1
102
RTVSPropertyOp19
 70
     1
102
RTVSPropertyOp20
 70
     1
102
RTVSPropertyOp21
 70
     1
102
RTVSPropertyOp22
 70
     1
102
RTVSPropertyOp23
 70
     1
102
RTVSPropertyOp24
 70
     1
102
RTVSPropertyOp25
 70
     1
102
RTVSPropertyOp26
 70
     1
102
RTVSPropertyOp27
 70
     1
102
RTVSPropertyOp28
 70
     1
102
RTVSPropertyOp29
 70
     1
102
RTVSPropertyOp30
 70
     1
102
RTVSPropertyOp31
 70
     1
102
RTVSPropertyOp32
 70
     1
102
RTVSPropertyOp33
 70
     1
102
RTVSPropertyOp34
 70
     1
102
RTVSPropertyOp35
 70
     1
102
RTVSPropertyOp36
 70
     1
102
RTVSPropertyOp37
 70
     1
102
RTVSPropertyOp38
 70
     1
102
RTVSPropertyOp39
 70
     1
102
RTVSPropertyOp40
 70
     1
102
RTVSPropertyOp41
 70
     1
102
RTVSPropertyOp42
 70
     1
102
RTVSPropertyOp43
 70
     1
102
RTVSPropertyOp44
 70
     1
102
RTVSPropertyOp45
 70
     1
102
RTVSPropertyOp46
 70
     1
102
RTVSPropertyOp47
 70
     1
102
RTVSPropertyOp48
 70
     1
102
RTVSPropertyOp49
 70
     1
102
RTVSPropertyOp50
 70
     1
102
RTVSPropertyOp51
 70
     0
102
RTVSPropertyOp52
 70
     0
102
RTVSPropertyOp53
 70
     1
102
RTVSPropertyOp54
 70
     1
102
RTVSPropertyOp55
 70
     1
102
RTVSPropertyOp56
 70
     1
102
RTVSPropertyOp57
 70
     1
102
RTVSPost2010Prop28
280
     0
102
RTVSPost2010PropOp28
 70
     1
102
RTVSPost2010Prop29
280
     1
102
RTVSPost2010PropOp29
 70
     1
102
RTVSPost2010Prop30
280
     1
102
RTVSPost2010PropOp30
 70
     1
102
RTVSPost2010Prop31
280
     0
102
RTVSPost2010PropOp31
 70
     1
102
RTVSPost2010Prop32
280
     0
102
RTVSPost2010PropOp32
 70
     1
102
RTVSPost2010Prop33
280
     0
102
RTVSPost2010PropOp33
 70
     1
102
RTVSPost2010Prop34
280
     0
102
RTVSPost2010PropOp34
 70
     1
102
RTVSPost2010Prop35
280
     0
102
RTVSPost2010PropOp35
 70
     1
102
RTVSPost2010Prop36
280
     0
102
RTVSPost2010PropOp36
 70
     1
102
RTVSPost2010Prop37
 90
       50
102
RTVSPost2010PropOp37
 70
     1
102
RTVSPost2010Prop38
140
0.0
102
RTVSPost2010PropOp38
 70
     1
102
RTVSPost2010Prop39
140
1.0
102
RTVSPost2010PropOp39
 70
     1
102
RTVSPost2010Prop40
 90
        0
102
RTVSPost2010PropOp40
 70
     1
102
RTVSPost2010Prop41ColorIndex
 90
       18
102
RTVSPost2010Prop41ColorRGB
 90
        0
102
RTVSPost2010PropOp41
 70
     1
102
RTVSPost2010Prop42
 90
       50
102
RTVSPost2010PropOp42
 70
     1
102
RTVSPost2010Prop43
 90
        3
102
RTVSPost2010PropOp43
 70
     1
102
RTVSPost2010Prop44ColorIndex
 90
        5
102
RTVSPost2010Prop44ColorRGB
 90
      255
102
RTVSPost2010PropOp44
 70
     1
102
RTVSPost2010Prop45
280
     0
102
RTVSPost2010PropOp45
 70
     1
102
RTVSPost2010Prop46
 90
       50
102
RTVSPost2010PropOp46
 70
     1
102
RTVSPost2010Prop47
 90
       50
102
RTVSPost2010PropOp47
 70
     1
102
RTVSPost2010Prop48
 90
       50
102
RTVSPost2010PropOp48
 70
     1
102
RTVSPost2010Prop49
280
     0
102
RTVSPost2010PropOp49
 70
     1
102
RTVSPost2010Prop50
 90
       50
102
RTVSPost2010PropOp50
 70
     1
102
RTVSPost2010Prop51ColorIndex
 90
      256
102
RTVSPost2010Prop51ColorRGB
 90
-16777216
102
RTVSPost2010PropOp51
 70
     0
102
RTVSPost2010Prop52
140
1.0
102
RTVSPost2010PropOp52
 70
     0
102
RTVSPost2010Prop53
 90
        2
102
RTVSPost2010PropOp53
 70
     1
102
RTVSPost2010Prop54
  1
strokes_ogs.tif
102
RTVSPost2010PropOp54
 70
     1
102
RTVSPost2010Prop55
280
     0
102
RTVSPost2010PropOp55
 70
     1
102
RTVSPost2010Prop56
140
1.0
102
RTVSPost2010PropOp56
 70
     1
102
RTVSPost2010Prop57
140
1.0
102
RTVSPost2010PropOp57
 70
     1
  0
XRECORD
  5
14A
102
{ACAD_REACTORS
330
149
102
}
330
149
100
AcDbXrecord
280
     1
102
RTVSPropertyOp0
 70
     1
102
RTVSPropertyOp1
 70
     1
102
RTVSPropertyOp2
 70
     1
102
RTVSPropertyOp3
 70
     1
102
RTVSPropertyOp4
 70
     1
102
RTVSPropertyOp5
 70
     1
102
RTVSPropertyOp6
 70
     1
102
RTVSPropertyOp7
 70
     1
102
RTVSPropertyOp8
 70
     1
102
RTVSPropertyOp9
 70
     1
102
RTVSPropertyOp10
 70
     1
102
RTVSPropertyOp11
 70
     1
102
RTVSPropertyOp12
 70
     1
102
RTVSPropertyOp13
 70
     1
102
RTVSPropertyOp14
 70
     1
102
RTVSPropertyOp15
 70
     1
102
RTVSPropertyOp16
 70
     1
102
RTVSPropertyOp17
 70
     1
102
RTVSPropertyOp18
 70
     1
102
RTVSPropertyOp19
 70
     1
102
RTVSPropertyOp20
 70
     1
102
RTVSPropertyOp21
 70
     1
102
RTVSPropertyOp22
 70
     1
102
RTVSPropertyOp23
 70
     1
102
RTVSPropertyOp24
 70
     1
102
RTVSPropertyOp25
 70
     1
102
RTVSPropertyOp26
 70
     1
102
RTVSPropertyOp27
 70
     1
102
RTVSPropertyOp28
 70
     1
102
RTVSPropertyOp29
 70
     1
102
RTVSPropertyOp30
 70
     1
102
RTVSPropertyOp31
 70
     1
102
RTVSPropertyOp32
 70
     1
102
RTVSPropertyOp33
 70
     1
102
RTVSPropertyOp34
 70
     1
102
RTVSPropertyOp35
 70
     1
102
RTVSPropertyOp36
 70
     1
102
RTVSPropertyOp37
 70
     1
102
RTVSPropertyOp38
 70
     1
102
RTVSPropertyOp39
 70
     1
102
RTVSPropertyOp40
 70
     1
102
RTVSPropertyOp41
 70
     1
102
RTVSPropertyOp42
 70
     1
102
RTVSPropertyOp43
 70
     1
102
RTVSPropertyOp44
 70
     1
102
RTVSPropertyOp45
 70
     1
102
RTVSPropertyOp46
 70
     1
102
RTVSPropertyOp47
 70
     1
102
RTVSPropertyOp48
 70
     1
102
RTVSPropertyOp49
 70
     1
102
RTVSPropertyOp50
 70
     1
102
RTVSPropertyOp51
 70
     0
102
RTVSPropertyOp52
 70
     0
102
RTVSPropertyOp53
 70
     1
102
RTVSPropertyOp54
 70
     1
102
RTVSPropertyOp55
 70
     1
102
RTVSPropertyOp56
 70
     1
102
RTVSPropertyOp57
 70
     1
102
RTVSPost2010Prop28
280
     0
102
RTVSPost2010PropOp28
 70
     1
102
RTVSPost2010Prop29
280
     1
102
RTVSPost2010PropOp29
 70
     1
102
RTVSPost2010Prop30
280
     1
102
RTVSPost2010PropOp30
 70
     1
102
RTVSPost2010Prop31
280
     0
102
RTVSPost2010PropOp31
 70
     1
102
RTVSPost2010Prop32
280
     0
102
RTVSPost2010PropOp32
 70
     1
102
RTVSPost2010Prop33
280
     0
102
RTVSPost2010PropOp33
 70
     1
102
RTVSPost2010Prop34
280
     0
102
RTVSPost2010PropOp34
 70
     1
102
RTVSPost2010Prop35
280
     0
102
RTVSPost2010PropOp35
 70
     1
102
RTVSPost2010Prop36
280
     0
102
RTVSPost2010PropOp36
 70
     1
102
RTVSPost2010Prop37
 90
       50
102
RTVSPost2010PropOp37
 70
     1
102
RTVSPost2010Prop38
140
0.0
102
RTVSPost2010PropOp38
 70
     1
102
RTVSPost2010Prop39
140
1.0
102
RTVSPost2010PropOp39
 70
     1
102
RTVSPost2010Prop40
 90
        0
102
RTVSPost2010PropOp40
 70
     1
102
RTVSPost2010Prop41ColorIndex
 90
       18
102
RTVSPost2010Prop41ColorRGB
 90
        0
102
RTVSPost2010PropOp41
 70
     1
102
RTVSPost2010Prop42
 90
       50
102
RTVSPost2010PropOp42
 70
     1
102
RTVSPost2010Prop43
 90
        3
102
RTVSPost2010PropOp43
 70
     1
102
RTVSPost2010Prop44ColorIndex
 90
        5
102
RTVSPost2010Prop44ColorRGB
 90
      255
102
RTVSPost2010PropOp44
 70
     1
102
RTVSPost2010Prop45
280
     0
102
RTVSPost2010PropOp45
 70
     1
102
RTVSPost2010Prop46
 90
       50
102
RTVSPost2010PropOp46
 70
     1
102
RTVSPost2010Prop47
 90
       50
102
RTVSPost2010PropOp47
 70
     1
102
RTVSPost2010Prop48
 90
       50
102
RTVSPost2010PropOp48
 70
     1
102
RTVSPost2010Prop49
280
     0
102
RTVSPost2010PropOp49
 70
     1
102
RTVSPost2010Prop50
 90
       50
102
RTVSPost2010PropOp50
 70
     1
102
RTVSPost2010Prop51ColorIndex
 90
      256
102
RTVSPost2010Prop51ColorRGB
 90
-16777216
102
RTVSPost2010PropOp51
 70
     0
102
RTVSPost2010Prop52
140
1.0
102
RTVSPost2010PropOp52
 70
     0
102
RTVSPost2010Prop53
 90
        2
102
RTVSPost2010PropOp53
 70
     1
102
RTVSPost2010Prop54
  1
strokes_ogs.tif
102
RTVSPost2010PropOp54
 70
     1
102
RTVSPost2010Prop55
280
     0
102
RTVSPost2010PropOp55
 70
     1
102
RTVSPost2010Prop56
140
1.0
102
RTVSPost2010PropOp56
 70
     1
102
RTVSPost2010Prop57
140
1.0
102
RTVSPost2010PropOp57
 70
     1
  0
XRECORD
  5
14C
102
{ACAD_REACTORS
330
14B
102
}
330
14B
100
AcDbXrecord
280
     1
102
RTVSPropertyOp0
 70
     1
102
RTVSPropertyOp1
 70
     1
102
RTVSPropertyOp2
 70
     1
102
RTVSPropertyOp3
 70
     1
102
RTVSPropertyOp4
 70
     1
102
RTVSPropertyOp5
 70
     1
102
RTVSPropertyOp6
 70
     1
102
RTVSPropertyOp7
 70
     1
102
RTVSPropertyOp8
 70
     1
102
RTVSPropertyOp9
 70
     1
102
RTVSPropertyOp10
 70
     1
102
RTVSPropertyOp11
 70
     1
102
RTVSPropertyOp12
 70
     1
102
RTVSPropertyOp13
 70
     1
102
RTVSPropertyOp14
 70
     1
102
RTVSPropertyOp15
 70
     1
102
RTVSPropertyOp16
 70
     1
102
RTVSPropertyOp17
 70
     1
102
RTVSPropertyOp18
 70
     1
102
RTVSPropertyOp19
 70
     1
102
RTVSPropertyOp20
 70
     1
102
RTVSPropertyOp21
 70
     1
102
RTVSPropertyOp22
 70
     1
102
RTVSPropertyOp23
 70
     1
102
RTVSPropertyOp24
 70
     1
102
RTVSPropertyOp25
 70
     1
102
RTVSPropertyOp26
 70
     1
102
RTVSPropertyOp27
 70
     1
102
RTVSPropertyOp28
 70
     1
102
RTVSPropertyOp29
 70
     1
102
RTVSPropertyOp30
 70
     1
102
RTVSPropertyOp31
 70
     1
102
RTVSPropertyOp32
 70
     1
102
RTVSPropertyOp33
 70
     1
102
RTVSPropertyOp34
 70
     1
102
RTVSPropertyOp35
 70
     1
102
RTVSPropertyOp36
 70
     1
102
RTVSPropertyOp37
 70
     1
102
RTVSPropertyOp38
 70
     1
102
RTVSPropertyOp39
 70
     1
102
RTVSPropertyOp40
 70
     1
102
RTVSPropertyOp41
 70
     1
102
RTVSPropertyOp42
 70
     1
102
RTVSPropertyOp43
 70
     1
102
RTVSPropertyOp44
 70
     1
102
RTVSPropertyOp45
 70
     1
102
RTVSPropertyOp46
 70
     1
102
RTVSPropertyOp47
 70
     1
102
RTVSPropertyOp48
 70
     1
102
RTVSPropertyOp49
 70
     1
102
RTVSPropertyOp50
 70
     1
102
RTVSPropertyOp51
 70
     0
102
RTVSPropertyOp52
 70
     0
102
RTVSPropertyOp53
 70
     1
102
RTVSPropertyOp54
 70
     1
102
RTVSPropertyOp55
 70
     1
102
RTVSPropertyOp56
 70
     1
102
RTVSPropertyOp57
 70
     1
102
RTVSPost2010Prop28
280
     0
102
RTVSPost2010PropOp28
 70
     1
102
RTVSPost2010Prop29
280
     1
102
RTVSPost2010PropOp29
 70
     1
102
RTVSPost2010Prop30
280
     1
102
RTVSPost2010PropOp30
 70
     1
102
RTVSPost2010Prop31
280
     0
102
RTVSPost2010PropOp31
 70
     1
102
RTVSPost2010Prop32
280
     0
102
RTVSPost2010PropOp32
 70
     1
102
RTVSPost2010Prop33
280
     0
102
RTVSPost2010PropOp33
 70
     1
102
RTVSPost2010Prop34
280
     0
102
RTVSPost2010PropOp34
 70
     1
102
RTVSPost2010Prop35
280
     0
102
RTVSPost2010PropOp35
 70
     1
102
RTVSPost2010Prop36
280
     0
102
RTVSPost2010PropOp36
 70
     1
102
RTVSPost2010Prop37
 90
       50
102
RTVSPost2010PropOp37
 70
     1
102
RTVSPost2010Prop38
140
0.0
102
RTVSPost2010PropOp38
 70
     1
102
RTVSPost2010Prop39
140
1.0
102
RTVSPost2010PropOp39
 70
     1
102
RTVSPost2010Prop40
 90
        0
102
RTVSPost2010PropOp40
 70
     1
102
RTVSPost2010Prop41ColorIndex
 90
       18
102
RTVSPost2010Prop41ColorRGB
 90
        0
102
RTVSPost2010PropOp41
 70
     1
102
RTVSPost2010Prop42
 90
       50
102
RTVSPost2010PropOp42
 70
     1
102
RTVSPost2010Prop43
 90
        3
102
RTVSPost2010PropOp43
 70
     1
102
RTVSPost2010Prop44ColorIndex
 90
        5
102
RTVSPost2010Prop44ColorRGB
 90
      255
102
RTVSPost2010PropOp44
 70
     1
102
RTVSPost2010Prop45
280
     0
102
RTVSPost2010PropOp45
 70
     1
102
RTVSPost2010Prop46
 90
       50
102
RTVSPost2010PropOp46
 70
     1
102
RTVSPost2010Prop47
 90
       50
102
RTVSPost2010PropOp47
 70
     1
102
RTVSPost2010Prop48
 90
       50
102
RTVSPost2010PropOp48
 70
     1
102
RTVSPost2010Prop49
280
     0
102
RTVSPost2010PropOp49
 70
     1
102
RTVSPost2010Prop50
 90
       50
102
RTVSPost2010PropOp50
 70
     1
102
RTVSPost2010Prop51ColorIndex
 90
      256
102
RTVSPost2010Prop51ColorRGB
 90
-16777216
102
RTVSPost2010PropOp51
 70
     0
102
RTVSPost2010Prop52
140
1.0
102
RTVSPost2010PropOp52
 70
     0
102
RTVSPost2010Prop53
 90
        2
102
RTVSPost2010PropOp53
 70
     1
102
RTVSPost2010Prop54
  1
strokes_ogs.tif
102
RTVSPost2010PropOp54
 70
     1
102
RTVSPost2010Prop55
280
     0
102
RTVSPost2010PropOp55
 70
     1
102
RTVSPost2010Prop56
140
1.0
102
RTVSPost2010PropOp56
 70
     1
102
RTVSPost2010Prop57
140
1.0
102
RTVSPost2010PropOp57
 70
     1
  0
XRECORD
  5
15C
102
{ACAD_REACTORS
330
15B
102
}
330
15B
100
AcDbXrecord
280
     1
102
RTVSPropertyOp0
 70
     0
102
RTVSPropertyOp1
 70
     0
102
RTVSPropertyOp2
 70
     0
102
RTVSPropertyOp3
 70
     0
102
RTVSPropertyOp4
 70
     0
102
RTVSPropertyOp5
 70
     0
102
RTVSPropertyOp6
 70
     0
102
RTVSPropertyOp7
 70
     0
102
RTVSPropertyOp8
 70
     0
102
RTVSPropertyOp9
 70
     0
102
RTVSPropertyOp10
 70
     0
102
RTVSPropertyOp11
 70
     0
102
RTVSPropertyOp12
 70
     0
102
RTVSPropertyOp13
 70
     0
102
RTVSPropertyOp14
 70
     2
102
RTVSPropertyOp15
 70
     0
102
RTVSPropertyOp16
 70
     0
102
RTVSPropertyOp17
 70
     0
102
RTVSPropertyOp18
 70
     0
102
RTVSPropertyOp19
 70
     0
102
RTVSPropertyOp20
 70
     0
102
RTVSPropertyOp21
 70
     0
102
RTVSPropertyOp22
 70
     0
102
RTVSPropertyOp23
 70
     0
102
RTVSPropertyOp24
 70
     0
102
RTVSPropertyOp25
 70
     0
102
RTVSPropertyOp26
 70
     0
102
RTVSPropertyOp27
 70
     0
102
RTVSPropertyOp28
 70
     0
102
RTVSPropertyOp29
 70
     0
102
RTVSPropertyOp30
 70
     0
102
RTVSPropertyOp31
 70
     0
102
RTVSPropertyOp32
 70
     0
102
RTVSPropertyOp33
 70
     0
102
RTVSPropertyOp34
 70
     0
102
RTVSPropertyOp35
 70
     0
102
RTVSPropertyOp36
 70
     0
102
RTVSPropertyOp37
 70
     0
102
RTVSPropertyOp38
 70
     0
102
RTVSPropertyOp39
 70
     0
102
RTVSPropertyOp40
 70
     0
102
RTVSPropertyOp41
 70
     0
102
RTVSPropertyOp42
 70
     0
102
RTVSPropertyOp43
 70
     0
102
RTVSPropertyOp44
 70
     0
102
RTVSPropertyOp45
 70
     0
102
RTVSPropertyOp46
 70
     0
102
RTVSPropertyOp47
 70
     0
102
RTVSPropertyOp48
 70
     0
102
RTVSPropertyOp49
 70
     0
102
RTVSPropertyOp50
 70
     0
102
RTVSPropertyOp51
 70
     0
102
RTVSPropertyOp52
 70
     0
102
RTVSPropertyOp53
 70
     0
102
RTVSPropertyOp54
 70
     0
102
RTVSPropertyOp55
 70
     0
102
RTVSPropertyOp56
 70
     0
102
RTVSPropertyOp57
 70
     0
102
RTVSPost2010Prop28
280
     0
102
RTVSPost2010PropOp28
 70
     0
102
RTVSPost2010Prop29
280
     1
102
RTVSPost2010PropOp29
 70
     0
102
RTVSPost2010Prop30
280
     1
102
RTVSPost2010PropOp30
 70
     0
102
RTVSPost2010Prop31
280
     0
102
RTVSPost2010PropOp31
 70
     0
102
RTVSPost2010Prop32
280
     0
102
RTVSPost2010PropOp32
 70
     0
102
RTVSPost2010Prop33
280
     0
102
RTVSPost2010PropOp33
 70
     0
102
RTVSPost2010Prop34
280
     0
102
RTVSPost2010PropOp34
 70
     0
102
RTVSPost2010Prop35
280
     0
102
RTVSPost2010PropOp35
 70
     0
102
RTVSPost2010Prop36
280
     0
102
RTVSPost2010PropOp36
 70
     0
102
RTVSPost2010Prop37
 90
       50
102
RTVSPost2010PropOp37
 70
     0
102
RTVSPost2010Prop38
140
0.0
102
RTVSPost2010PropOp38
 70
     0
102
RTVSPost2010Prop39
140
1.0
102
RTVSPost2010PropOp39
 70
     0
102
RTVSPost2010Prop40
 90
        0
102
RTVSPost2010PropOp40
 70
     0
102
RTVSPost2010Prop41ColorIndex
 90
       18
102
RTVSPost2010Prop41ColorRGB
 90
        0
102
RTVSPost2010PropOp41
 70
     0
102
RTVSPost2010Prop42
 90
       50
102
RTVSPost2010PropOp42
 70
     0
102
RTVSPost2010Prop43
 90
        3
102
RTVSPost2010PropOp43
 70
     0
102
RTVSPost2010Prop44ColorIndex
 90
        5
102
RTVSPost2010Prop44ColorRGB
 90
      255
102
RTVSPost2010PropOp44
 70
     0
102
RTVSPost2010Prop45
280
     0
102
RTVSPost2010PropOp45
 70
     0
102
RTVSPost2010Prop46
 90
       50
102
RTVSPost2010PropOp46
 70
     0
102
RTVSPost2010Prop47
 90
       50
102
RTVSPost2010PropOp47
 70
     0
102
RTVSPost2010Prop48
 90
       50
102
RTVSPost2010PropOp48
 70
     0
102
RTVSPost2010Prop49
280
     0
102
RTVSPost2010PropOp49
 70
     0
102
RTVSPost2010Prop50
 90
       50
102
RTVSPost2010PropOp50
 70
     0
102
RTVSPost2010Prop51ColorIndex
 90
      256
102
RTVSPost2010Prop51ColorRGB
 90
-16777216
102
RTVSPost2010PropOp51
 70
     0
102
RTVSPost2010Prop52
140
1.0
102
RTVSPost2010PropOp52
 70
     0
102
RTVSPost2010Prop53
 90
        2
102
RTVSPost2010PropOp53
 70
     0
102
RTVSPost2010Prop54
  1
strokes_ogs.tif
102
RTVSPost2010PropOp54
 70
     0
102
RTVSPost2010Prop55
280
     0
102
RTVSPost2010PropOp55
 70
     0
102
RTVSPost2010Prop56
140
1.0
102
RTVSPost2010PropOp56
 70
     0
102
RTVSPost2010Prop57
140
1.0
102
RTVSPost2010PropOp57
 70
     0
  0
XRECORD
  5
154
102
{ACAD_REACTORS
330
153
102
}
330
153
100
AcDbXrecord
280
     1
102
RTVSPropertyOp0
 70
     1
102
RTVSPropertyOp1
 70
     1
102
RTVSPropertyOp2
 70
     1
102
RTVSPropertyOp3
 70
     1
102
RTVSPropertyOp4
 70
     1
102
RTVSPropertyOp5
 70
     1
102
RTVSPropertyOp6
 70
     1
102
RTVSPropertyOp7
 70
     1
102
RTVSPropertyOp8
 70
     1
102
RTVSPropertyOp9
 70
     1
102
RTVSPropertyOp10
 70
     1
102
RTVSPropertyOp11
 70
     1
102
RTVSPropertyOp12
 70
     1
102
RTVSPropertyOp13
 70
     1
102
RTVSPropertyOp14
 70
     1
102
RTVSPropertyOp15
 70
     1
102
RTVSPropertyOp16
 70
     1
102
RTVSPropertyOp17
 70
     1
102
RTVSPropertyOp18
 70
     1
102
RTVSPropertyOp19
 70
     1
102
RTVSPropertyOp20
 70
     1
102
RTVSPropertyOp21
 70
     1
102
RTVSPropertyOp22
 70
     1
102
RTVSPropertyOp23
 70
     1
102
RTVSPropertyOp24
 70
     1
102
RTVSPropertyOp25
 70
     1
102
RTVSPropertyOp26
 70
     1
102
RTVSPropertyOp27
 70
     1
102
RTVSPropertyOp28
 70
     1
102
RTVSPropertyOp29
 70
     1
102
RTVSPropertyOp30
 70
     1
102
RTVSPropertyOp31
 70
     1
102
RTVSPropertyOp32
 70
     1
102
RTVSPropertyOp33
 70
     1
102
RTVSPropertyOp34
 70
     1
102
RTVSPropertyOp35
 70
     1
102
RTVSPropertyOp36
 70
     1
102
RTVSPropertyOp37
 70
     1
102
RTVSPropertyOp38
 70
     1
102
RTVSPropertyOp39
 70
     1
102
RTVSPropertyOp40
 70
     1
102
RTVSPropertyOp41
 70
     1
102
RTVSPropertyOp42
 70
     1
102
RTVSPropertyOp43
 70
     1
102
RTVSPropertyOp44
 70
     1
102
RTVSPropertyOp45
 70
     1
102
RTVSPropertyOp46
 70
     1
102
RTVSPropertyOp47
 70
     1
102
RTVSPropertyOp48
 70
     1
102
RTVSPropertyOp49
 70
     1
102
RTVSPropertyOp50
 70
     1
102
RTVSPropertyOp51
 70
     0
102
RTVSPropertyOp52
 70
     0
102
RTVSPropertyOp53
 70
     1
102
RTVSPropertyOp54
 70
     1
102
RTVSPropertyOp55
 70
     1
102
RTVSPropertyOp56
 70
     1
102
RTVSPropertyOp57
 70
     1
102
RTVSPost2010Prop28
280
     0
102
RTVSPost2010PropOp28
 70
     1
102
RTVSPost2010Prop29
280
     1
102
RTVSPost2010PropOp29
 70
     1
102
RTVSPost2010Prop30
280
     1
102
RTVSPost2010PropOp30
 70
     1
102
RTVSPost2010Prop31
280
     0
102
RTVSPost2010PropOp31
 70
     1
102
RTVSPost2010Prop32
280
     0
102
RTVSPost2010PropOp32
 70
     1
102
RTVSPost2010Prop33
280
     0
102
RTVSPost2010PropOp33
 70
     1
102
RTVSPost2010Prop34
280
     0
102
RTVSPost2010PropOp34
 70
     1
102
RTVSPost2010Prop35
280
     0
102
RTVSPost2010PropOp35
 70
     1
102
RTVSPost2010Prop36
280
     0
102
RTVSPost2010PropOp36
 70
     1
102
RTVSPost2010Prop37
 90
       50
102
RTVSPost2010PropOp37
 70
     1
102
RTVSPost2010Prop38
140
0.0
102
RTVSPost2010PropOp38
 70
     1
102
RTVSPost2010Prop39
140
1.0
102
RTVSPost2010PropOp39
 70
     1
102
RTVSPost2010Prop40
 90
        0
102
RTVSPost2010PropOp40
 70
     1
102
RTVSPost2010Prop41ColorIndex
 90
       18
102
RTVSPost2010Prop41ColorRGB
 90
        0
102
RTVSPost2010PropOp41
 70
     1
102
RTVSPost2010Prop42
 90
       50
102
RTVSPost2010PropOp42
 70
     1
102
RTVSPost2010Prop43
 90
        3
102
RTVSPost2010PropOp43
 70
     1
102
RTVSPost2010Prop44ColorIndex
 90
        5
102
RTVSPost2010Prop44ColorRGB
 90
      255
102
RTVSPost2010PropOp44
 70
     1
102
RTVSPost2010Prop45
280
     0
102
RTVSPost2010PropOp45
 70
     1
102
RTVSPost2010Prop46
 90
       50
102
RTVSPost2010PropOp46
 70
     1
102
RTVSPost2010Prop47
 90
       50
102
RTVSPost2010PropOp47
 70
     1
102
RTVSPost2010Prop48
 90
       50
102
RTVSPost2010PropOp48
 70
     1
102
RTVSPost2010Prop49
280
     0
102
RTVSPost2010PropOp49
 70
     1
102
RTVSPost2010Prop50
 90
       50
102
RTVSPost2010PropOp50
 70
     1
102
RTVSPost2010Prop51ColorIndex
 90
      256
102
RTVSPost2010Prop51ColorRGB
 90
-16777216
102
RTVSPost2010PropOp51
 70
     0
102
RTVSPost2010Prop52
140
1.0
102
RTVSPost2010PropOp52
 70
     0
102
RTVSPost2010Prop53
 90
        2
102
RTVSPost2010PropOp53
 70
     1
102
RTVSPost2010Prop54
  1
strokes_ogs.tif
102
RTVSPost2010PropOp54
 70
     1
102
RTVSPost2010Prop55
280
     0
102
RTVSPost2010PropOp55
 70
     1
102
RTVSPost2010Prop56
140
1.0
102
RTVSPost2010PropOp56
 70
     1
102
RTVSPost2010Prop57
140
1.0
102
RTVSPost2010PropOp57
 70
     1
  0
XRECORD
  5
138
102
{ACAD_REACTORS
330
137
102
}
330
137
100
AcDbXrecord
280
     1
102
RTVSPropertyOp0
 70
     1
102
RTVSPropertyOp1
 70
     1
102
RTVSPropertyOp2
 70
     1
102
RTVSPropertyOp3
 70
     1
102
RTVSPropertyOp4
 70
     1
102
RTVSPropertyOp5
 70
     1
102
RTVSPropertyOp6
 70
     1
102
RTVSPropertyOp7
 70
     1
102
RTVSPropertyOp8
 70
     1
102
RTVSPropertyOp9
 70
     1
102
RTVSPropertyOp10
 70
     1
102
RTVSPropertyOp11
 70
     1
102
RTVSPropertyOp12
 70
     1
102
RTVSPropertyOp13
 70
     1
102
RTVSPropertyOp14
 70
     1
102
RTVSPropertyOp15
 70
     1
102
RTVSPropertyOp16
 70
     1
102
RTVSPropertyOp17
 70
     1
102
RTVSPropertyOp18
 70
     1
102
RTVSPropertyOp19
 70
     1
102
RTVSPropertyOp20
 70
     1
102
RTVSPropertyOp21
 70
     1
102
RTVSPropertyOp22
 70
     1
102
RTVSPropertyOp23
 70
     1
102
RTVSPropertyOp24
 70
     1
102
RTVSPropertyOp25
 70
     1
102
RTVSPropertyOp26
 70
     1
102
RTVSPropertyOp27
 70
     1
102
RTVSPropertyOp28
 70
     1
102
RTVSPropertyOp29
 70
     1
102
RTVSPropertyOp30
 70
     1
102
RTVSPropertyOp31
 70
     1
102
RTVSPropertyOp32
 70
     1
102
RTVSPropertyOp33
 70
     1
102
RTVSPropertyOp34
 70
     1
102
RTVSPropertyOp35
 70
     1
102
RTVSPropertyOp36
 70
     1
102
RTVSPropertyOp37
 70
     1
102
RTVSPropertyOp38
 70
     1
102
RTVSPropertyOp39
 70
     1
102
RTVSPropertyOp40
 70
     1
102
RTVSPropertyOp41
 70
     1
102
RTVSPropertyOp42
 70
     1
102
RTVSPropertyOp43
 70
     1
102
RTVSPropertyOp44
 70
     1
102
RTVSPropertyOp45
 70
     1
102
RTVSPropertyOp46
 70
     1
102
RTVSPropertyOp47
 70
     1
102
RTVSPropertyOp48
 70
     1
102
RTVSPropertyOp49
 70
     1
102
RTVSPropertyOp50
 70
     1
102
RTVSPropertyOp51
 70
     0
102
RTVSPropertyOp52
 70
     0
102
RTVSPropertyOp53
 70
     1
102
RTVSPropertyOp54
 70
     1
102
RTVSPropertyOp55
 70
     1
102
RTVSPropertyOp56
 70
     1
102
RTVSPropertyOp57
 70
     1
102
RTVSPost2010Prop28
280
     0
102
RTVSPost2010PropOp28
 70
     1
102
RTVSPost2010Prop29
280
     1
102
RTVSPost2010PropOp29
 70
     1
102
RTVSPost2010Prop30
280
     1
102
RTVSPost2010PropOp30
 70
     1
102
RTVSPost2010Prop31
280
     0
102
RTVSPost2010PropOp31
 70
     1
102
RTVSPost2010Prop32
280
     0
102
RTVSPost2010PropOp32
 70
     1
102
RTVSPost2010Prop33
280
     0
102
RTVSPost2010PropOp33
 70
     1
102
RTVSPost2010Prop34
280
     0
102
RTVSPost2010PropOp34
 70
     1
102
RTVSPost2010Prop35
280
     0
102
RTVSPost2010PropOp35
 70
     1
102
RTVSPost2010Prop36
280
     0
102
RTVSPost2010PropOp36
 70
     1
102
RTVSPost2010Prop37
 90
       50
102
RTVSPost2010PropOp37
 70
     1
102
RTVSPost2010Prop38
140
0.0
102
RTVSPost2010PropOp38
 70
     1
102
RTVSPost2010Prop39
140
1.0
102
RTVSPost2010PropOp39
 70
     1
102
RTVSPost2010Prop40
 90
        0
102
RTVSPost2010PropOp40
 70
     1
102
RTVSPost2010Prop41ColorIndex
 90
       18
102
RTVSPost2010Prop41ColorRGB
 90
        0
102
RTVSPost2010PropOp41
 70
     1
102
RTVSPost2010Prop42
 90
       50
102
RTVSPost2010PropOp42
 70
     1
102
RTVSPost2010Prop43
 90
        3
102
RTVSPost2010PropOp43
 70
     1
102
RTVSPost2010Prop44ColorIndex
 90
        5
102
RTVSPost2010Prop44ColorRGB
 90
      255
102
RTVSPost2010PropOp44
 70
     1
102
RTVSPost2010Prop45
280
     0
102
RTVSPost2010PropOp45
 70
     1
102
RTVSPost2010Prop46
 90
       50
102
RTVSPost2010PropOp46
 70
     1
102
RTVSPost2010Prop47
 90
       50
102
RTVSPost2010PropOp47
 70
     1
102
RTVSPost2010Prop48
 90
       50
102
RTVSPost2010PropOp48
 70
     1
102
RTVSPost2010Prop49
280
     0
102
RTVSPost2010PropOp49
 70
     1
102
RTVSPost2010Prop50
 90
       50
102
RTVSPost2010PropOp50
 70
     1
102
RTVSPost2010Prop51ColorIndex
 90
      256
102
RTVSPost2010Prop51ColorRGB
 90
-16777216
102
RTVSPost2010PropOp51
 70
     0
102
RTVSPost2010Prop52
140
1.0
102
RTVSPost2010PropOp52
 70
     0
102
RTVSPost2010Prop53
 90
        2
102
RTVSPost2010PropOp53
 70
     1
102
RTVSPost2010Prop54
  1
strokes_ogs.tif
102
RTVSPost2010PropOp54
 70
     1
102
RTVSPost2010Prop55
280
     0
102
RTVSPost2010PropOp55
 70
     1
102
RTVSPost2010Prop56
140
1.0
102
RTVSPost2010PropOp56
 70
     1
102
RTVSPost2010Prop57
140
1.0
102
RTVSPost2010PropOp57
 70
     1
  0
XRECORD
  5
13A
102
{ACAD_REACTORS
330
139
102
}
330
139
100
AcDbXrecord
280
     1
102
RTVSPropertyOp0
 70
     1
102
RTVSPropertyOp1
 70
     1
102
RTVSPropertyOp2
 70
     1
102
RTVSPropertyOp3
 70
     1
102
RTVSPropertyOp4
 70
     1
102
RTVSPropertyOp5
 70
     1
102
RTVSPropertyOp6
 70
     1
102
RTVSPropertyOp7
 70
     1
102
RTVSPropertyOp8
 70
     1
102
RTVSPropertyOp9
 70
     1
102
RTVSPropertyOp10
 70
     1
102
RTVSPropertyOp11
 70
     1
102
RTVSPropertyOp12
 70
     1
102
RTVSPropertyOp13
 70
     1
102
RTVSPropertyOp14
 70
     1
102
RTVSPropertyOp15
 70
     1
102
RTVSPropertyOp16
 70
     1
102
RTVSPropertyOp17
 70
     1
102
RTVSPropertyOp18
 70
     1
102
RTVSPropertyOp19
 70
     1
102
RTVSPropertyOp20
 70
     1
102
RTVSPropertyOp21
 70
     1
102
RTVSPropertyOp22
 70
     1
102
RTVSPropertyOp23
 70
     1
102
RTVSPropertyOp24
 70
     1
102
RTVSPropertyOp25
 70
     1
102
RTVSPropertyOp26
 70
     1
102
RTVSPropertyOp27
 70
     1
102
RTVSPropertyOp28
 70
     1
102
RTVSPropertyOp29
 70
     1
102
RTVSPropertyOp30
 70
     1
102
RTVSPropertyOp31
 70
     1
102
RTVSPropertyOp32
 70
     1
102
RTVSPropertyOp33
 70
     1
102
RTVSPropertyOp34
 70
     1
102
RTVSPropertyOp35
 70
     1
102
RTVSPropertyOp36
 70
     1
102
RTVSPropertyOp37
 70
     1
102
RTVSPropertyOp38
 70
     1
102
RTVSPropertyOp39
 70
     1
102
RTVSPropertyOp40
 70
     1
102
RTVSPropertyOp41
 70
     1
102
RTVSPropertyOp42
 70
     1
102
RTVSPropertyOp43
 70
     1
102
RTVSPropertyOp44
 70
     1
102
RTVSPropertyOp45
 70
     1
102
RTVSPropertyOp46
 70
     1
102
RTVSPropertyOp47
 70
     1
102
RTVSPropertyOp48
 70
     1
102
RTVSPropertyOp49
 70
     1
102
RTVSPropertyOp50
 70
     1
102
RTVSPropertyOp51
 70
     0
102
RTVSPropertyOp52
 70
     0
102
RTVSPropertyOp53
 70
     1
102
RTVSPropertyOp54
 70
     1
102
RTVSPropertyOp55
 70
     1
102
RTVSPropertyOp56
 70
     1
102
RTVSPropertyOp57
 70
     1
102
RTVSPost2010Prop28
280
     0
102
RTVSPost2010PropOp28
 70
     1
102
RTVSPost2010Prop29
280
     1
102
RTVSPost2010PropOp29
 70
     1
102
RTVSPost2010Prop30
280
     1
102
RTVSPost2010PropOp30
 70
     1
102
RTVSPost2010Prop31
280
     0
102
RTVSPost2010PropOp31
 70
     1
102
RTVSPost2010Prop32
280
     0
102
RTVSPost2010PropOp32
 70
     1
102
RTVSPost2010Prop33
280
     0
102
RTVSPost2010PropOp33
 70
     1
102
RTVSPost2010Prop34
280
     0
102
RTVSPost2010PropOp34
 70
     1
102
RTVSPost2010Prop35
280
     0
102
RTVSPost2010PropOp35
 70
     1
102
RTVSPost2010Prop36
280
     0
102
RTVSPost2010PropOp36
 70
     1
102
RTVSPost2010Prop37
 90
       50
102
RTVSPost2010PropOp37
 70
     1
102
RTVSPost2010Prop38
140
0.0
102
RTVSPost2010PropOp38
 70
     1
102
RTVSPost2010Prop39
140
1.0
102
RTVSPost2010PropOp39
 70
     1
102
RTVSPost2010Prop40
 90
        0
102
RTVSPost2010PropOp40
 70
     1
102
RTVSPost2010Prop41ColorIndex
 90
       18
102
RTVSPost2010Prop41ColorRGB
 90
        0
102
RTVSPost2010PropOp41
 70
     1
102
RTVSPost2010Prop42
 90
       50
102
RTVSPost2010PropOp42
 70
     1
102
RTVSPost2010Prop43
 90
        3
102
RTVSPost2010PropOp43
 70
     1
102
RTVSPost2010Prop44ColorIndex
 90
        5
102
RTVSPost2010Prop44ColorRGB
 90
      255
102
RTVSPost2010PropOp44
 70
     1
102
RTVSPost2010Prop45
280
     0
102
RTVSPost2010PropOp45
 70
     1
102
RTVSPost2010Prop46
 90
       50
102
RTVSPost2010PropOp46
 70
     1
102
RTVSPost2010Prop47
 90
       50
102
RTVSPost2010PropOp47
 70
     1
102
RTVSPost2010Prop48
 90
       50
102
RTVSPost2010PropOp48
 70
     1
102
RTVSPost2010Prop49
280
     0
102
RTVSPost2010PropOp49
 70
     1
102
RTVSPost2010Prop50
 90
       50
102
RTVSPost2010PropOp50
 70
     1
102
RTVSPost2010Prop51ColorIndex
 90
      256
102
RTVSPost2010Prop51ColorRGB
 90
-16777216
102
RTVSPost2010PropOp51
 70
     0
102
RTVSPost2010Prop52
140
1.0
102
RTVSPost2010PropOp52
 70
     0
102
RTVSPost2010Prop53
 90
        2
102
RTVSPost2010PropOp53
 70
     1
102
RTVSPost2010Prop54
  1
strokes_ogs.tif
102
RTVSPost2010PropOp54
 70
     1
102
RTVSPost2010Prop55
280
     0
102
RTVSPost2010PropOp55
 70
     1
102
RTVSPost2010Prop56
140
1.0
102
RTVSPost2010PropOp56
 70
     1
102
RTVSPost2010Prop57
140
1.0
102
RTVSPost2010PropOp57
 70
     1
  0
XRECORD
  5
13C
102
{ACAD_REACTORS
330
13B
102
}
330
13B
100
AcDbXrecord
280
     1
102
RTVSPropertyOp0
 70
     1
102
RTVSPropertyOp1
 70
     1
102
RTVSPropertyOp2
 70
     1
102
RTVSPropertyOp3
 70
     1
102
RTVSPropertyOp4
 70
     1
102
RTVSPropertyOp5
 70
     1
102
RTVSPropertyOp6
 70
     1
102
RTVSPropertyOp7
 70
     1
102
RTVSPropertyOp8
 70
     1
102
RTVSPropertyOp9
 70
     1
102
RTVSPropertyOp10
 70
     1
102
RTVSPropertyOp11
 70
     1
102
RTVSPropertyOp12
 70
     1
102
RTVSPropertyOp13
 70
     1
102
RTVSPropertyOp14
 70
     1
102
RTVSPropertyOp15
 70
     1
102
RTVSPropertyOp16
 70
     1
102
RTVSPropertyOp17
 70
     1
102
RTVSPropertyOp18
 70
     1
102
RTVSPropertyOp19
 70
     1
102
RTVSPropertyOp20
 70
     1
102
RTVSPropertyOp21
 70
     1
102
RTVSPropertyOp22
 70
     1
102
RTVSPropertyOp23
 70
     1
102
RTVSPropertyOp24
 70
     1
102
RTVSPropertyOp25
 70
     1
102
RTVSPropertyOp26
 70
     1
102
RTVSPropertyOp27
 70
     1
102
RTVSPropertyOp28
 70
     1
102
RTVSPropertyOp29
 70
     1
102
RTVSPropertyOp30
 70
     1
102
RTVSPropertyOp31
 70
     1
102
RTVSPropertyOp32
 70
     1
102
RTVSPropertyOp33
 70
     1
102
RTVSPropertyOp34
 70
     1
102
RTVSPropertyOp35
 70
     1
102
RTVSPropertyOp36
 70
     1
102
RTVSPropertyOp37
 70
     1
102
RTVSPropertyOp38
 70
     1
102
RTVSPropertyOp39
 70
     1
102
RTVSPropertyOp40
 70
     1
102
RTVSPropertyOp41
 70
     1
102
RTVSPropertyOp42
 70
     1
102
RTVSPropertyOp43
 70
     1
102
RTVSPropertyOp44
 70
     1
102
RTVSPropertyOp45
 70
     1
102
RTVSPropertyOp46
 70
     1
102
RTVSPropertyOp47
 70
     1
102
RTVSPropertyOp48
 70
     1
102
RTVSPropertyOp49
 70
     1
102
RTVSPropertyOp50
 70
     1
102
RTVSPropertyOp51
 70
     0
102
RTVSPropertyOp52
 70
     0
102
RTVSPropertyOp53
 70
     1
102
RTVSPropertyOp54
 70
     1
102
RTVSPropertyOp55
 70
     1
102
RTVSPropertyOp56
 70
     1
102
RTVSPropertyOp57
 70
     1
102
RTVSPost2010Prop28
280
     0
102
RTVSPost2010PropOp28
 70
     1
102
RTVSPost2010Prop29
280
     1
102
RTVSPost2010PropOp29
 70
     1
102
RTVSPost2010Prop30
280
     1
102
RTVSPost2010PropOp30
 70
     1
102
RTVSPost2010Prop31
280
     0
102
RTVSPost2010PropOp31
 70
     1
102
RTVSPost2010Prop32
280
     0
102
RTVSPost2010PropOp32
 70
     1
102
RTVSPost2010Prop33
280
     0
102
RTVSPost2010PropOp33
 70
     1
102
RTVSPost2010Prop34
280
     0
102
RTVSPost2010PropOp34
 70
     1
102
RTVSPost2010Prop35
280
     0
102
RTVSPost2010PropOp35
 70
     1
102
RTVSPost2010Prop36
280
     0
102
RTVSPost2010PropOp36
 70
     1
102
RTVSPost2010Prop37
 90
       50
102
RTVSPost2010PropOp37
 70
     1
102
RTVSPost2010Prop38
140
0.0
102
RTVSPost2010PropOp38
 70
     1
102
RTVSPost2010Prop39
140
1.0
102
RTVSPost2010PropOp39
 70
     1
102
RTVSPost2010Prop40
 90
        0
102
RTVSPost2010PropOp40
 70
     1
102
RTVSPost2010Prop41ColorIndex
 90
       18
102
RTVSPost2010Prop41ColorRGB
 90
        0
102
RTVSPost2010PropOp41
 70
     1
102
RTVSPost2010Prop42
 90
       50
102
RTVSPost2010PropOp42
 70
     1
102
RTVSPost2010Prop43
 90
        3
102
RTVSPost2010PropOp43
 70
     1
102
RTVSPost2010Prop44ColorIndex
 90
        5
102
RTVSPost2010Prop44ColorRGB
 90
      255
102
RTVSPost2010PropOp44
 70
     1
102
RTVSPost2010Prop45
280
     0
102
RTVSPost2010PropOp45
 70
     1
102
RTVSPost2010Prop46
 90
       50
102
RTVSPost2010PropOp46
 70
     1
102
RTVSPost2010Prop47
 90
       50
102
RTVSPost2010PropOp47
 70
     1
102
RTVSPost2010Prop48
 90
       50
102
RTVSPost2010PropOp48
 70
     1
102
RTVSPost2010Prop49
280
     0
102
RTVSPost2010PropOp49
 70
     1
102
RTVSPost2010Prop50
 90
       50
102
RTVSPost2010PropOp50
 70
     1
102
RTVSPost2010Prop51ColorIndex
 90
      256
102
RTVSPost2010Prop51ColorRGB
 90
-16777216
102
RTVSPost2010PropOp51
 70
     0
102
RTVSPost2010Prop52
140
1.0
102
RTVSPost2010PropOp52
 70
     0
102
RTVSPost2010Prop53
 90
        2
102
RTVSPost2010PropOp53
 70
     1
102
RTVSPost2010Prop54
  1
strokes_ogs.tif
102
RTVSPost2010PropOp54
 70
     1
102
RTVSPost2010Prop55
280
     0
102
RTVSPost2010PropOp55
 70
     1
102
RTVSPost2010Prop56
140
1.0
102
RTVSPost2010PropOp56
 70
     1
102
RTVSPost2010Prop57
140
1.0
102
RTVSPost2010PropOp57
 70
     1
  0
XRECORD
  5
13E
102
{ACAD_REACTORS
330
13D
102
}
330
13D
100
AcDbXrecord
280
     1
102
RTVSPropertyOp0
 70
     1
102
RTVSPropertyOp1
 70
     1
102
RTVSPropertyOp2
 70
     1
102
RTVSPropertyOp3
 70
     1
102
RTVSPropertyOp4
 70
     1
102
RTVSPropertyOp5
 70
     1
102
RTVSPropertyOp6
 70
     1
102
RTVSPropertyOp7
 70
     1
102
RTVSPropertyOp8
 70
     1
102
RTVSPropertyOp9
 70
     1
102
RTVSPropertyOp10
 70
     1
102
RTVSPropertyOp11
 70
     1
102
RTVSPropertyOp12
 70
     1
102
RTVSPropertyOp13
 70
     1
102
RTVSPropertyOp14
 70
     1
102
RTVSPropertyOp15
 70
     1
102
RTVSPropertyOp16
 70
     1
102
RTVSPropertyOp17
 70
     1
102
RTVSPropertyOp18
 70
     1
102
RTVSPropertyOp19
 70
     1
102
RTVSPropertyOp20
 70
     1
102
RTVSPropertyOp21
 70
     1
102
RTVSPropertyOp22
 70
     1
102
RTVSPropertyOp23
 70
     1
102
RTVSPropertyOp24
 70
     1
102
RTVSPropertyOp25
 70
     1
102
RTVSPropertyOp26
 70
     1
102
RTVSPropertyOp27
 70
     1
102
RTVSPropertyOp28
 70
     1
102
RTVSPropertyOp29
 70
     1
102
RTVSPropertyOp30
 70
     1
102
RTVSPropertyOp31
 70
     1
102
RTVSPropertyOp32
 70
     1
102
RTVSPropertyOp33
 70
     1
102
RTVSPropertyOp34
 70
     1
102
RTVSPropertyOp35
 70
     1
102
RTVSPropertyOp36
 70
     1
102
RTVSPropertyOp37
 70
     1
102
RTVSPropertyOp38
 70
     1
102
RTVSPropertyOp39
 70
     1
102
RTVSPropertyOp40
 70
     1
102
RTVSPropertyOp41
 70
     1
102
RTVSPropertyOp42
 70
     1
102
RTVSPropertyOp43
 70
     1
102
RTVSPropertyOp44
 70
     1
102
RTVSPropertyOp45
 70
     1
102
RTVSPropertyOp46
 70
     1
102
RTVSPropertyOp47
 70
     1
102
RTVSPropertyOp48
 70
     1
102
RTVSPropertyOp49
 70
     1
102
RTVSPropertyOp50
 70
     1
102
RTVSPropertyOp51
 70
     0
102
RTVSPropertyOp52
 70
     0
102
RTVSPropertyOp53
 70
     1
102
RTVSPropertyOp54
 70
     1
102
RTVSPropertyOp55
 70
     1
102
RTVSPropertyOp56
 70
     1
102
RTVSPropertyOp57
 70
     1
102
RTVSPost2010Prop28
280
     0
102
RTVSPost2010PropOp28
 70
     1
102
RTVSPost2010Prop29
280
     1
102
RTVSPost2010PropOp29
 70
     1
102
RTVSPost2010Prop30
280
     1
102
RTVSPost2010PropOp30
 70
     1
102
RTVSPost2010Prop31
280
     0
102
RTVSPost2010PropOp31
 70
     1
102
RTVSPost2010Prop32
280
     0
102
RTVSPost2010PropOp32
 70
     1
102
RTVSPost2010Prop33
280
     0
102
RTVSPost2010PropOp33
 70
     1
102
RTVSPost2010Prop34
280
     0
102
RTVSPost2010PropOp34
 70
     1
102
RTVSPost2010Prop35
280
     0
102
RTVSPost2010PropOp35
 70
     1
102
RTVSPost2010Prop36
280
     0
102
RTVSPost2010PropOp36
 70
     1
102
RTVSPost2010Prop37
 90
       50
102
RTVSPost2010PropOp37
 70
     1
102
RTVSPost2010Prop38
140
0.0
102
RTVSPost2010PropOp38
 70
     1
102
RTVSPost2010Prop39
140
1.0
102
RTVSPost2010PropOp39
 70
     1
102
RTVSPost2010Prop40
 90
        0
102
RTVSPost2010PropOp40
 70
     1
102
RTVSPost2010Prop41ColorIndex
 90
       18
102
RTVSPost2010Prop41ColorRGB
 90
        0
102
RTVSPost2010PropOp41
 70
     1
102
RTVSPost2010Prop42
 90
       50
102
RTVSPost2010PropOp42
 70
     1
102
RTVSPost2010Prop43
 90
        3
102
RTVSPost2010PropOp43
 70
     1
102
RTVSPost2010Prop44ColorIndex
 90
        5
102
RTVSPost2010Prop44ColorRGB
 90
      255
102
RTVSPost2010PropOp44
 70
     1
102
RTVSPost2010Prop45
280
     0
102
RTVSPost2010PropOp45
 70
     1
102
RTVSPost2010Prop46
 90
       50
102
RTVSPost2010PropOp46
 70
     1
102
RTVSPost2010Prop47
 90
       50
102
RTVSPost2010PropOp47
 70
     1
102
RTVSPost2010Prop48
 90
       50
102
RTVSPost2010PropOp48
 70
     1
102
RTVSPost2010Prop49
280
     0
102
RTVSPost2010PropOp49
 70
     1
102
RTVSPost2010Prop50
 90
       50
102
RTVSPost2010PropOp50
 70
     1
102
RTVSPost2010Prop51ColorIndex
 90
      256
102
RTVSPost2010Prop51ColorRGB
 90
-16777216
102
RTVSPost2010PropOp51
 70
     0
102
RTVSPost2010Prop52
140
1.0
102
RTVSPost2010PropOp52
 70
     0
102
RTVSPost2010Prop53
 90
        2
102
RTVSPost2010PropOp53
 70
     1
102
RTVSPost2010Prop54
  1
strokes_ogs.tif
102
RTVSPost2010PropOp54
 70
     1
102
RTVSPost2010Prop55
280
     0
102
RTVSPost2010PropOp55
 70
     1
102
RTVSPost2010Prop56
140
1.0
102
RTVSPost2010PropOp56
 70
     1
102
RTVSPost2010Prop57
140
1.0
102
RTVSPost2010PropOp57
 70
     1
  0
XRECORD
  5
144
102
{ACAD_REACTORS
330
143
102
}
330
143
100
AcDbXrecord
280
     1
102
RTVSPropertyOp0
 70
     1
102
RTVSPropertyOp1
 70
     1
102
RTVSPropertyOp2
 70
     1
102
RTVSPropertyOp3
 70
     1
102
RTVSPropertyOp4
 70
     1
102
RTVSPropertyOp5
 70
     1
102
RTVSPropertyOp6
 70
     1
102
RTVSPropertyOp7
 70
     1
102
RTVSPropertyOp8
 70
     1
102
RTVSPropertyOp9
 70
     1
102
RTVSPropertyOp10
 70
     1
102
RTVSPropertyOp11
 70
     1
102
RTVSPropertyOp12
 70
     1
102
RTVSPropertyOp13
 70
     1
102
RTVSPropertyOp14
 70
     1
102
RTVSPropertyOp15
 70
     1
102
RTVSPropertyOp16
 70
     1
102
RTVSPropertyOp17
 70
     1
102
RTVSPropertyOp18
 70
     1
102
RTVSPropertyOp19
 70
     1
102
RTVSPropertyOp20
 70
     1
102
RTVSPropertyOp21
 70
     1
102
RTVSPropertyOp22
 70
     1
102
RTVSPropertyOp23
 70
     1
102
RTVSPropertyOp24
 70
     1
102
RTVSPropertyOp25
 70
     1
102
RTVSPropertyOp26
 70
     1
102
RTVSPropertyOp27
 70
     1
102
RTVSPropertyOp28
 70
     1
102
RTVSPropertyOp29
 70
     1
102
RTVSPropertyOp30
 70
     1
102
RTVSPropertyOp31
 70
     1
102
RTVSPropertyOp32
 70
     1
102
RTVSPropertyOp33
 70
     1
102
RTVSPropertyOp34
 70
     1
102
RTVSPropertyOp35
 70
     1
102
RTVSPropertyOp36
 70
     1
102
RTVSPropertyOp37
 70
     1
102
RTVSPropertyOp38
 70
     1
102
RTVSPropertyOp39
 70
     1
102
RTVSPropertyOp40
 70
     1
102
RTVSPropertyOp41
 70
     1
102
RTVSPropertyOp42
 70
     1
102
RTVSPropertyOp43
 70
     1
102
RTVSPropertyOp44
 70
     1
102
RTVSPropertyOp45
 70
     1
102
RTVSPropertyOp46
 70
     1
102
RTVSPropertyOp47
 70
     1
102
RTVSPropertyOp48
 70
     1
102
RTVSPropertyOp49
 70
     1
102
RTVSPropertyOp50
 70
     1
102
RTVSPropertyOp51
 70
     0
102
RTVSPropertyOp52
 70
     0
102
RTVSPropertyOp53
 70
     1
102
RTVSPropertyOp54
 70
     1
102
RTVSPropertyOp55
 70
     1
102
RTVSPropertyOp56
 70
     1
102
RTVSPropertyOp57
 70
     1
102
RTVSPost2010Prop28
280
     0
102
RTVSPost2010PropOp28
 70
     1
102
RTVSPost2010Prop29
280
     1
102
RTVSPost2010PropOp29
 70
     1
102
RTVSPost2010Prop30
280
     1
102
RTVSPost2010PropOp30
 70
     1
102
RTVSPost2010Prop31
280
     0
102
RTVSPost2010PropOp31
 70
     1
102
RTVSPost2010Prop32
280
     0
102
RTVSPost2010PropOp32
 70
     1
102
RTVSPost2010Prop33
280
     0
102
RTVSPost2010PropOp33
 70
     1
102
RTVSPost2010Prop34
280
     0
102
RTVSPost2010PropOp34
 70
     1
102
RTVSPost2010Prop35
280
     0
102
RTVSPost2010PropOp35
 70
     1
102
RTVSPost2010Prop36
280
     0
102
RTVSPost2010PropOp36
 70
     1
102
RTVSPost2010Prop37
 90
       50
102
RTVSPost2010PropOp37
 70
     1
102
RTVSPost2010Prop38
140
0.0
102
RTVSPost2010PropOp38
 70
     1
102
RTVSPost2010Prop39
140
1.0
102
RTVSPost2010PropOp39
 70
     1
102
RTVSPost2010Prop40
 90
        0
102
RTVSPost2010PropOp40
 70
     1
102
RTVSPost2010Prop41ColorIndex
 90
       18
102
RTVSPost2010Prop41ColorRGB
 90
        0
102
RTVSPost2010PropOp41
 70
     1
102
RTVSPost2010Prop42
 90
       50
102
RTVSPost2010PropOp42
 70
     1
102
RTVSPost2010Prop43
 90
        3
102
RTVSPost2010PropOp43
 70
     1
102
RTVSPost2010Prop44ColorIndex
 90
        5
102
RTVSPost2010Prop44ColorRGB
 90
      255
102
RTVSPost2010PropOp44
 70
     1
102
RTVSPost2010Prop45
280
     0
102
RTVSPost2010PropOp45
 70
     1
102
RTVSPost2010Prop46
 90
       50
102
RTVSPost2010PropOp46
 70
     1
102
RTVSPost2010Prop47
 90
       50
102
RTVSPost2010PropOp47
 70
     1
102
RTVSPost2010Prop48
 90
       50
102
RTVSPost2010PropOp48
 70
     1
102
RTVSPost2010Prop49
280
     0
102
RTVSPost2010PropOp49
 70
     1
102
RTVSPost2010Prop50
 90
       50
102
RTVSPost2010PropOp50
 70
     1
102
RTVSPost2010Prop51ColorIndex
 90
      256
102
RTVSPost2010Prop51ColorRGB
 90
-16777216
102
RTVSPost2010PropOp51
 70
     0
102
RTVSPost2010Prop52
140
1.0
102
RTVSPost2010PropOp52
 70
     0
102
RTVSPost2010Prop53
 90
        2
102
RTVSPost2010PropOp53
 70
     1
102
RTVSPost2010Prop54
  1
strokes_ogs.tif
102
RTVSPost2010PropOp54
 70
     1
102
RTVSPost2010Prop55
280
     0
102
RTVSPost2010PropOp55
 70
     1
102
RTVSPost2010Prop56
140
1.0
102
RTVSPost2010PropOp56
 70
     1
102
RTVSPost2010Prop57
140
1.0
102
RTVSPost2010PropOp57
 70
     1
  0
XRECORD
  5
158
102
{ACAD_REACTORS
330
157
102
}
330
157
100
AcDbXrecord
280
     1
102
RTVSPropertyOp0
 70
     0
102
RTVSPropertyOp1
 70
     0
102
RTVSPropertyOp2
 70
     0
102
RTVSPropertyOp3
 70
     0
102
RTVSPropertyOp4
 70
     0
102
RTVSPropertyOp5
 70
     0
102
RTVSPropertyOp6
 70
     0
102
RTVSPropertyOp7
 70
     0
102
RTVSPropertyOp8
 70
     0
102
RTVSPropertyOp9
 70
     0
102
RTVSPropertyOp10
 70
     0
102
RTVSPropertyOp11
 70
     0
102
RTVSPropertyOp12
 70
     0
102
RTVSPropertyOp13
 70
     0
102
RTVSPropertyOp14
 70
     2
102
RTVSPropertyOp15
 70
     0
102
RTVSPropertyOp16
 70
     0
102
RTVSPropertyOp17
 70
     0
102
RTVSPropertyOp18
 70
     0
102
RTVSPropertyOp19
 70
     0
102
RTVSPropertyOp20
 70
     0
102
RTVSPropertyOp21
 70
     0
102
RTVSPropertyOp22
 70
     0
102
RTVSPropertyOp23
 70
     0
102
RTVSPropertyOp24
 70
     0
102
RTVSPropertyOp25
 70
     0
102
RTVSPropertyOp26
 70
     0
102
RTVSPropertyOp27
 70
     0
102
RTVSPropertyOp28
 70
     0
102
RTVSPropertyOp29
 70
     0
102
RTVSPropertyOp30
 70
     0
102
RTVSPropertyOp31
 70
     0
102
RTVSPropertyOp32
 70
     0
102
RTVSPropertyOp33
 70
     0
102
RTVSPropertyOp34
 70
     0
102
RTVSPropertyOp35
 70
     0
102
RTVSPropertyOp36
 70
     0
102
RTVSPropertyOp37
 70
     0
102
RTVSPropertyOp38
 70
     0
102
RTVSPropertyOp39
 70
     0
102
RTVSPropertyOp40
 70
     0
102
RTVSPropertyOp41
 70
     0
102
RTVSPropertyOp42
 70
     0
102
RTVSPropertyOp43
 70
     0
102
RTVSPropertyOp44
 70
     0
102
RTVSPropertyOp45
 70
     0
102
RTVSPropertyOp46
 70
     0
102
RTVSPropertyOp47
 70
     0
102
RTVSPropertyOp48
 70
     0
102
RTVSPropertyOp49
 70
     0
102
RTVSPropertyOp50
 70
     0
102
RTVSPropertyOp51
 70
     0
102
RTVSPropertyOp52
 70
     0
102
RTVSPropertyOp53
 70
     0
102
RTVSPropertyOp54
 70
     0
102
RTVSPropertyOp55
 70
     0
102
RTVSPropertyOp56
 70
     0
102
RTVSPropertyOp57
 70
     0
102
RTVSPost2010Prop28
280
     0
102
RTVSPost2010PropOp28
 70
     0
102
RTVSPost2010Prop29
280
     1
102
RTVSPost2010PropOp29
 70
     0
102
RTVSPost2010Prop30
280
     1
102
RTVSPost2010PropOp30
 70
     0
102
RTVSPost2010Prop31
280
     0
102
RTVSPost2010PropOp31
 70
     0
102
RTVSPost2010Prop32
280
     0
102
RTVSPost2010PropOp32
 70
     0
102
RTVSPost2010Prop33
280
     0
102
RTVSPost2010PropOp33
 70
     0
102
RTVSPost2010Prop34
280
     0
102
RTVSPost2010PropOp34
 70
     0
102
RTVSPost2010Prop35
280
     0
102
RTVSPost2010PropOp35
 70
     0
102
RTVSPost2010Prop36
280
     0
102
RTVSPost2010PropOp36
 70
     0
102
RTVSPost2010Prop37
 90
       50
102
RTVSPost2010PropOp37
 70
     0
102
RTVSPost2010Prop38
140
0.0
102
RTVSPost2010PropOp38
 70
     0
102
RTVSPost2010Prop39
140
1.0
102
RTVSPost2010PropOp39
 70
     0
102
RTVSPost2010Prop40
 90
        0
102
RTVSPost2010PropOp40
 70
     0
102
RTVSPost2010Prop41ColorIndex
 90
       18
102
RTVSPost2010Prop41ColorRGB
 90
        0
102
RTVSPost2010PropOp41
 70
     0
102
RTVSPost2010Prop42
 90
       50
102
RTVSPost2010PropOp42
 70
     0
102
RTVSPost2010Prop43
 90
        3
102
RTVSPost2010PropOp43
 70
     0
102
RTVSPost2010Prop44ColorIndex
 90
        5
102
RTVSPost2010Prop44ColorRGB
 90
      255
102
RTVSPost2010PropOp44
 70
     0
102
RTVSPost2010Prop45
280
     0
102
RTVSPost2010PropOp45
 70
     0
102
RTVSPost2010Prop46
 90
       50
102
RTVSPost2010PropOp46
 70
     0
102
RTVSPost2010Prop47
 90
       50
102
RTVSPost2010PropOp47
 70
     0
102
RTVSPost2010Prop48
 90
       50
102
RTVSPost2010PropOp48
 70
     0
102
RTVSPost2010Prop49
280
     0
102
RTVSPost2010PropOp49
 70
     0
102
RTVSPost2010Prop50
 90
       50
102
RTVSPost2010PropOp50
 70
     0
102
RTVSPost2010Prop51ColorIndex
 90
      256
102
RTVSPost2010Prop51ColorRGB
 90
-16777216
102
RTVSPost2010PropOp51
 70
     0
102
RTVSPost2010Prop52
140
1.0
102
RTVSPost2010PropOp52
 70
     0
102
RTVSPost2010Prop53
 90
        2
102
RTVSPost2010PropOp53
 70
     0
102
RTVSPost2010Prop54
  1
strokes_ogs.tif
102
RTVSPost2010PropOp54
 70
     0
102
RTVSPost2010Prop55
280
     0
102
RTVSPost2010PropOp55
 70
     0
102
RTVSPost2010Prop56
140
1.0
102
RTVSPost2010PropOp56
 70
     0
102
RTVSPost2010Prop57
140
1.0
102
RTVSPost2010PropOp57
 70
     0
  0
XRECORD
  5
152
102
{ACAD_REACTORS
330
151
102
}
330
151
100
AcDbXrecord
280
     1
102
RTVSPropertyOp0
 70
     1
102
RTVSPropertyOp1
 70
     1
102
RTVSPropertyOp2
 70
     1
102
RTVSPropertyOp3
 70
     1
102
RTVSPropertyOp4
 70
     1
102
RTVSPropertyOp5
 70
     1
102
RTVSPropertyOp6
 70
     1
102
RTVSPropertyOp7
 70
     1
102
RTVSPropertyOp8
 70
     1
102
RTVSPropertyOp9
 70
     1
102
RTVSPropertyOp10
 70
     1
102
RTVSPropertyOp11
 70
     1
102
RTVSPropertyOp12
 70
     1
102
RTVSPropertyOp13
 70
     1
102
RTVSPropertyOp14
 70
     1
102
RTVSPropertyOp15
 70
     1
102
RTVSPropertyOp16
 70
     1
102
RTVSPropertyOp17
 70
     1
102
RTVSPropertyOp18
 70
     1
102
RTVSPropertyOp19
 70
     1
102
RTVSPropertyOp20
 70
     1
102
RTVSPropertyOp21
 70
     1
102
RTVSPropertyOp22
 70
     1
102
RTVSPropertyOp23
 70
     1
102
RTVSPropertyOp24
 70
     1
102
RTVSPropertyOp25
 70
     1
102
RTVSPropertyOp26
 70
     1
102
RTVSPropertyOp27
 70
     1
102
RTVSPropertyOp28
 70
     1
102
RTVSPropertyOp29
 70
     1
102
RTVSPropertyOp30
 70
     1
102
RTVSPropertyOp31
 70
     1
102
RTVSPropertyOp32
 70
     1
102
RTVSPropertyOp33
 70
     1
102
RTVSPropertyOp34
 70
     1
102
RTVSPropertyOp35
 70
     1
102
RTVSPropertyOp36
 70
     1
102
RTVSPropertyOp37
 70
     1
102
RTVSPropertyOp38
 70
     1
102
RTVSPropertyOp39
 70
     1
102
RTVSPropertyOp40
 70
     1
102
RTVSPropertyOp41
 70
     1
102
RTVSPropertyOp42
 70
     1
102
RTVSPropertyOp43
 70
     1
102
RTVSPropertyOp44
 70
     1
102
RTVSPropertyOp45
 70
     1
102
RTVSPropertyOp46
 70
     1
102
RTVSPropertyOp47
 70
     1
102
RTVSPropertyOp48
 70
     1
102
RTVSPropertyOp49
 70
     1
102
RTVSPropertyOp50
 70
     1
102
RTVSPropertyOp51
 70
     0
102
RTVSPropertyOp52
 70
     0
102
RTVSPropertyOp53
 70
     1
102
RTVSPropertyOp54
 70
     1
102
RTVSPropertyOp55
 70
     1
102
RTVSPropertyOp56
 70
     1
102
RTVSPropertyOp57
 70
     1
102
RTVSPost2010Prop28
280
     0
102
RTVSPost2010PropOp28
 70
     1
102
RTVSPost2010Prop29
280
     1
102
RTVSPost2010PropOp29
 70
     1
102
RTVSPost2010Prop30
280
     1
102
RTVSPost2010PropOp30
 70
     1
102
RTVSPost2010Prop31
280
     0
102
RTVSPost2010PropOp31
 70
     1
102
RTVSPost2010Prop32
280
     0
102
RTVSPost2010PropOp32
 70
     1
102
RTVSPost2010Prop33
280
     0
102
RTVSPost2010PropOp33
 70
     1
102
RTVSPost2010Prop34
280
     0
102
RTVSPost2010PropOp34
 70
     1
102
RTVSPost2010Prop35
280
     0
102
RTVSPost2010PropOp35
 70
     1
102
RTVSPost2010Prop36
280
     0
102
RTVSPost2010PropOp36
 70
     1
102
RTVSPost2010Prop37
 90
       50
102
RTVSPost2010PropOp37
 70
     1
102
RTVSPost2010Prop38
140
0.0
102
RTVSPost2010PropOp38
 70
     1
102
RTVSPost2010Prop39
140
1.0
102
RTVSPost2010PropOp39
 70
     1
102
RTVSPost2010Prop40
 90
        0
102
RTVSPost2010PropOp40
 70
     1
102
RTVSPost2010Prop41ColorIndex
 90
       18
102
RTVSPost2010Prop41ColorRGB
 90
        0
102
RTVSPost2010PropOp41
 70
     1
102
RTVSPost2010Prop42
 90
       50
102
RTVSPost2010PropOp42
 70
     1
102
RTVSPost2010Prop43
 90
        3
102
RTVSPost2010PropOp43
 70
     1
102
RTVSPost2010Prop44ColorIndex
 90
        5
102
RTVSPost2010Prop44ColorRGB
 90
      255
102
RTVSPost2010PropOp44
 70
     1
102
RTVSPost2010Prop45
280
     0
102
RTVSPost2010PropOp45
 70
     1
102
RTVSPost2010Prop46
 90
       50
102
RTVSPost2010PropOp46
 70
     1
102
RTVSPost2010Prop47
 90
       50
102
RTVSPost2010PropOp47
 70
     1
102
RTVSPost2010Prop48
 90
       50
102
RTVSPost2010PropOp48
 70
     1
102
RTVSPost2010Prop49
280
     0
102
RTVSPost2010PropOp49
 70
     1
102
RTVSPost2010Prop50
 90
       50
102
RTVSPost2010PropOp50
 70
     1
102
RTVSPost2010Prop51ColorIndex
 90
      256
102
RTVSPost2010Prop51ColorRGB
 90
-16777216
102
RTVSPost2010PropOp51
 70
     0
102
RTVSPost2010Prop52
140
1.0
102
RTVSPost2010PropOp52
 70
     0
102
RTVSPost2010Prop53
 90
        2
102
RTVSPost2010PropOp53
 70
     1
102
RTVSPost2010Prop54
  1
strokes_ogs.tif
102
RTVSPost2010PropOp54
 70
     1
102
RTVSPost2010Prop55
280
     0
102
RTVSPost2010PropOp55
 70
     1
102
RTVSPost2010Prop56
140
1.0
102
RTVSPost2010PropOp56
 70
     1
102
RTVSPost2010Prop57
140
1.0
102
RTVSPost2010PropOp57
 70
     1
  0
XRECORD
  5
15A
102
{ACAD_REACTORS
330
159
102
}
330
159
100
AcDbXrecord
280
     1
102
RTVSPropertyOp0
 70
     0
102
RTVSPropertyOp1
 70
     0
102
RTVSPropertyOp2
 70
     0
102
RTVSPropertyOp3
 70
     0
102
RTVSPropertyOp4
 70
     0
102
RTVSPropertyOp5
 70
     0
102
RTVSPropertyOp6
 70
     0
102
RTVSPropertyOp7
 70
     0
102
RTVSPropertyOp8
 70
     0
102
RTVSPropertyOp9
 70
     0
102
RTVSPropertyOp10
 70
     0
102
RTVSPropertyOp11
 70
     0
102
RTVSPropertyOp12
 70
     0
102
RTVSPropertyOp13
 70
     0
102
RTVSPropertyOp14
 70
     2
102
RTVSPropertyOp15
 70
     0
102
RTVSPropertyOp16
 70
     0
102
RTVSPropertyOp17
 70
     0
102
RTVSPropertyOp18
 70
     0
102
RTVSPropertyOp19
 70
     0
102
RTVSPropertyOp20
 70
     0
102
RTVSPropertyOp21
 70
     0
102
RTVSPropertyOp22
 70
     0
102
RTVSPropertyOp23
 70
     0
102
RTVSPropertyOp24
 70
     0
102
RTVSPropertyOp25
 70
     0
102
RTVSPropertyOp26
 70
     0
102
RTVSPropertyOp27
 70
     0
102
RTVSPropertyOp28
 70
     0
102
RTVSPropertyOp29
 70
     0
102
RTVSPropertyOp30
 70
     0
102
RTVSPropertyOp31
 70
     0
102
RTVSPropertyOp32
 70
     0
102
RTVSPropertyOp33
 70
     0
102
RTVSPropertyOp34
 70
     0
102
RTVSPropertyOp35
 70
     0
102
RTVSPropertyOp36
 70
     0
102
RTVSPropertyOp37
 70
     0
102
RTVSPropertyOp38
 70
     0
102
RTVSPropertyOp39
 70
     0
102
RTVSPropertyOp40
 70
     0
102
RTVSPropertyOp41
 70
     0
102
RTVSPropertyOp42
 70
     0
102
RTVSPropertyOp43
 70
     0
102
RTVSPropertyOp44
 70
     0
102
RTVSPropertyOp45
 70
     0
102
RTVSPropertyOp46
 70
     0
102
RTVSPropertyOp47
 70
     0
102
RTVSPropertyOp48
 70
     0
102
RTVSPropertyOp49
 70
     0
102
RTVSPropertyOp50
 70
     0
102
RTVSPropertyOp51
 70
     0
102
RTVSPropertyOp52
 70
     0
102
RTVSPropertyOp53
 70
     0
102
RTVSPropertyOp54
 70
     0
102
RTVSPropertyOp55
 70
     0
102
RTVSPropertyOp56
 70
     0
102
RTVSPropertyOp57
 70
     0
102
RTVSPost2010Prop28
280
     0
102
RTVSPost2010PropOp28
 70
     0
102
RTVSPost2010Prop29
280
     1
102
RTVSPost2010PropOp29
 70
     0
102
RTVSPost2010Prop30
280
     1
102
RTVSPost2010PropOp30
 70
     0
102
RTVSPost2010Prop31
280
     0
102
RTVSPost2010PropOp31
 70
     0
102
RTVSPost2010Prop32
280
     0
102
RTVSPost2010PropOp32
 70
     0
102
RTVSPost2010Prop33
280
     0
102
RTVSPost2010PropOp33
 70
     0
102
RTVSPost2010Prop34
280
     0
102
RTVSPost2010PropOp34
 70
     0
102
RTVSPost2010Prop35
280
     0
102
RTVSPost2010PropOp35
 70
     0
102
RTVSPost2010Prop36
280
     0
102
RTVSPost2010PropOp36
 70
     0
102
RTVSPost2010Prop37
 90
       50
102
RTVSPost2010PropOp37
 70
     0
102
RTVSPost2010Prop38
140
0.0
102
RTVSPost2010PropOp38
 70
     0
102
RTVSPost2010Prop39
140
1.0
102
RTVSPost2010PropOp39
 70
     0
102
RTVSPost2010Prop40
 90
        0
102
RTVSPost2010PropOp40
 70
     0
102
RTVSPost2010Prop41ColorIndex
 90
       18
102
RTVSPost2010Prop41ColorRGB
 90
        0
102
RTVSPost2010PropOp41
 70
     0
102
RTVSPost2010Prop42
 90
       50
102
RTVSPost2010PropOp42
 70
     0
102
RTVSPost2010Prop43
 90
        3
102
RTVSPost2010PropOp43
 70
     0
102
RTVSPost2010Prop44ColorIndex
 90
        5
102
RTVSPost2010Prop44ColorRGB
 90
      255
102
RTVSPost2010PropOp44
 70
     0
102
RTVSPost2010Prop45
280
     0
102
RTVSPost2010PropOp45
 70
     0
102
RTVSPost2010Prop46
 90
       50
102
RTVSPost2010PropOp46
 70
     0
102
RTVSPost2010Prop47
 90
       50
102
RTVSPost2010PropOp47
 70
     0
102
RTVSPost2010Prop48
 90
       50
102
RTVSPost2010PropOp48
 70
     0
102
RTVSPost2010Prop49
280
     0
102
RTVSPost2010PropOp49
 70
     0
102
RTVSPost2010Prop50
 90
       50
102
RTVSPost2010PropOp50
 70
     0
102
RTVSPost2010Prop51ColorIndex
 90
      256
102
RTVSPost2010Prop51ColorRGB
 90
-16777216
102
RTVSPost2010PropOp51
 70
     0
102
RTVSPost2010Prop52
140
1.0
102
RTVSPost2010PropOp52
 70
     0
102
RTVSPost2010Prop53
 90
        2
102
RTVSPost2010PropOp53
 70
     0
102
RTVSPost2010Prop54
  1
strokes_ogs.tif
102
RTVSPost2010PropOp54
 70
     0
102
RTVSPost2010Prop55
280
     0
102
RTVSPost2010PropOp55
 70
     0
102
RTVSPost2010Prop56
140
1.0
102
RTVSPost2010PropOp56
 70
     0
102
RTVSPost2010Prop57
140
1.0
102
RTVSPost2010PropOp57
 70
     0
  0
XRECORD
  5
148
102
{ACAD_REACTORS
330
147
102
}
330
147
100
AcDbXrecord
280
     1
102
RTVSPropertyOp0
 70
     1
102
RTVSPropertyOp1
 70
     1
102
RTVSPropertyOp2
 70
     1
102
RTVSPropertyOp3
 70
     1
102
RTVSPropertyOp4
 70
     1
102
RTVSPropertyOp5
 70
     1
102
RTVSPropertyOp6
 70
     1
102
RTVSPropertyOp7
 70
     1
102
RTVSPropertyOp8
 70
     1
102
RTVSPropertyOp9
 70
     1
102
RTVSPropertyOp10
 70
     1
102
RTVSPropertyOp11
 70
     1
102
RTVSPropertyOp12
 70
     1
102
RTVSPropertyOp13
 70
     1
102
RTVSPropertyOp14
 70
     1
102
RTVSPropertyOp15
 70
     1
102
RTVSPropertyOp16
 70
     1
102
RTVSPropertyOp17
 70
     1
102
RTVSPropertyOp18
 70
     1
102
RTVSPropertyOp19
 70
     1
102
RTVSPropertyOp20
 70
     1
102
RTVSPropertyOp21
 70
     1
102
RTVSPropertyOp22
 70
     1
102
RTVSPropertyOp23
 70
     1
102
RTVSPropertyOp24
 70
     1
102
RTVSPropertyOp25
 70
     1
102
RTVSPropertyOp26
 70
     1
102
RTVSPropertyOp27
 70
     1
102
RTVSPropertyOp28
 70
     1
102
RTVSPropertyOp29
 70
     1
102
RTVSPropertyOp30
 70
     1
102
RTVSPropertyOp31
 70
     1
102
RTVSPropertyOp32
 70
     1
102
RTVSPropertyOp33
 70
     1
102
RTVSPropertyOp34
 70
     1
102
RTVSPropertyOp35
 70
     1
102
RTVSPropertyOp36
 70
     1
102
RTVSPropertyOp37
 70
     1
102
RTVSPropertyOp38
 70
     1
102
RTVSPropertyOp39
 70
     1
102
RTVSPropertyOp40
 70
     1
102
RTVSPropertyOp41
 70
     1
102
RTVSPropertyOp42
 70
     1
102
RTVSPropertyOp43
 70
     1
102
RTVSPropertyOp44
 70
     1
102
RTVSPropertyOp45
 70
     1
102
RTVSPropertyOp46
 70
     1
102
RTVSPropertyOp47
 70
     1
102
RTVSPropertyOp48
 70
     1
102
RTVSPropertyOp49
 70
     1
102
RTVSPropertyOp50
 70
     1
102
RTVSPropertyOp51
 70
     0
102
RTVSPropertyOp52
 70
     0
102
RTVSPropertyOp53
 70
     1
102
RTVSPropertyOp54
 70
     1
102
RTVSPropertyOp55
 70
     1
102
RTVSPropertyOp56
 70
     1
102
RTVSPropertyOp57
 70
     1
102
RTVSPost2010Prop28
280
     0
102
RTVSPost2010PropOp28
 70
     1
102
RTVSPost2010Prop29
280
     1
102
RTVSPost2010PropOp29
 70
     1
102
RTVSPost2010Prop30
280
     1
102
RTVSPost2010PropOp30
 70
     1
102
RTVSPost2010Prop31
280
     0
102
RTVSPost2010PropOp31
 70
     1
102
RTVSPost2010Prop32
280
     0
102
RTVSPost2010PropOp32
 70
     1
102
RTVSPost2010Prop33
280
     0
102
RTVSPost2010PropOp33
 70
     1
102
RTVSPost2010Prop34
280
     0
102
RTVSPost2010PropOp34
 70
     1
102
RTVSPost2010Prop35
280
     0
102
RTVSPost2010PropOp35
 70
     1
102
RTVSPost2010Prop36
280
     0
102
RTVSPost2010PropOp36
 70
     1
102
RTVSPost2010Prop37
 90
       50
102
RTVSPost2010PropOp37
 70
     1
102
RTVSPost2010Prop38
140
0.0
102
RTVSPost2010PropOp38
 70
     1
102
RTVSPost2010Prop39
140
1.0
102
RTVSPost2010PropOp39
 70
     1
102
RTVSPost2010Prop40
 90
        0
102
RTVSPost2010PropOp40
 70
     1
102
RTVSPost2010Prop41ColorIndex
 90
       18
102
RTVSPost2010Prop41ColorRGB
 90
        0
102
RTVSPost2010PropOp41
 70
     1
102
RTVSPost2010Prop42
 90
       50
102
RTVSPost2010PropOp42
 70
     1
102
RTVSPost2010Prop43
 90
        3
102
RTVSPost2010PropOp43
 70
     1
102
RTVSPost2010Prop44ColorIndex
 90
        5
102
RTVSPost2010Prop44ColorRGB
 90
      255
102
RTVSPost2010PropOp44
 70
     1
102
RTVSPost2010Prop45
280
     0
102
RTVSPost2010PropOp45
 70
     1
102
RTVSPost2010Prop46
 90
       50
102
RTVSPost2010PropOp46
 70
     1
102
RTVSPost2010Prop47
 90
       50
102
RTVSPost2010PropOp47
 70
     1
102
RTVSPost2010Prop48
 90
       50
102
RTVSPost2010PropOp48
 70
     1
102
RTVSPost2010Prop49
280
     0
102
RTVSPost2010PropOp49
 70
     1
102
RTVSPost2010Prop50
 90
       50
102
RTVSPost2010PropOp50
 70
     1
102
RTVSPost2010Prop51ColorIndex
 90
      256
102
RTVSPost2010Prop51ColorRGB
 90
-16777216
102
RTVSPost2010PropOp51
 70
     0
102
RTVSPost2010Prop52
140
1.0
102
RTVSPost2010PropOp52
 70
     0
102
RTVSPost2010Prop53
 90
        2
102
RTVSPost2010PropOp53
 70
     1
102
RTVSPost2010Prop54
  1
strokes_ogs.tif
102
RTVSPost2010PropOp54
 70
     1
102
RTVSPost2010Prop55
280
     0
102
RTVSPost2010PropOp55
 70
     1
102
RTVSPost2010Prop56
140
1.0
102
RTVSPost2010PropOp56
 70
     1
102
RTVSPost2010Prop57
140
1.0
102
RTVSPost2010PropOp57
 70
     1
  0
XRECORD
  5
166
102
{ACAD_REACTORS
330
165
102
}
330
165
100
AcDbXrecord
280
     1
102
RTVSPropertyOp0
 70
     1
102
RTVSPropertyOp1
 70
     1
102
RTVSPropertyOp2
 70
     1
102
RTVSPropertyOp3
 70
     1
102
RTVSPropertyOp4
 70
     1
102
RTVSPropertyOp5
 70
     1
102
RTVSPropertyOp6
 70
     1
102
RTVSPropertyOp7
 70
     1
102
RTVSPropertyOp8
 70
     1
102
RTVSPropertyOp9
 70
     1
102
RTVSPropertyOp10
 70
     1
102
RTVSPropertyOp11
 70
     1
102
RTVSPropertyOp12
 70
     1
102
RTVSPropertyOp13
 70
     1
102
RTVSPropertyOp14
 70
     1
102
RTVSPropertyOp15
 70
     1
102
RTVSPropertyOp16
 70
     1
102
RTVSPropertyOp17
 70
     1
102
RTVSPropertyOp18
 70
     1
102
RTVSPropertyOp19
 70
     1
102
RTVSPropertyOp20
 70
     1
102
RTVSPropertyOp21
 70
     1
102
RTVSPropertyOp22
 70
     1
102
RTVSPropertyOp23
 70
     1
102
RTVSPropertyOp24
 70
     1
102
RTVSPropertyOp25
 70
     1
102
RTVSPropertyOp26
 70
     1
102
RTVSPropertyOp27
 70
     1
102
RTVSPropertyOp28
 70
     1
102
RTVSPropertyOp29
 70
     1
102
RTVSPropertyOp30
 70
     1
102
RTVSPropertyOp31
 70
     1
102
RTVSPropertyOp32
 70
     1
102
RTVSPropertyOp33
 70
     1
102
RTVSPropertyOp34
 70
     1
102
RTVSPropertyOp35
 70
     1
102
RTVSPropertyOp36
 70
     1
102
RTVSPropertyOp37
 70
     1
102
RTVSPropertyOp38
 70
     1
102
RTVSPropertyOp39
 70
     1
102
RTVSPropertyOp40
 70
     1
102
RTVSPropertyOp41
 70
     1
102
RTVSPropertyOp42
 70
     1
102
RTVSPropertyOp43
 70
     1
102
RTVSPropertyOp44
 70
     1
102
RTVSPropertyOp45
 70
     1
102
RTVSPropertyOp46
 70
     1
102
RTVSPropertyOp47
 70
     1
102
RTVSPropertyOp48
 70
     1
102
RTVSPropertyOp49
 70
     1
102
RTVSPropertyOp50
 70
     1
102
RTVSPropertyOp51
 70
     0
102
RTVSPropertyOp52
 70
     0
102
RTVSPropertyOp53
 70
     1
102
RTVSPropertyOp54
 70
     1
102
RTVSPropertyOp55
 70
     1
102
RTVSPropertyOp56
 70
     1
102
RTVSPropertyOp57
 70
     1
102
RTVSPost2010Prop28
280
     0
102
RTVSPost2010PropOp28
 70
     1
102
RTVSPost2010Prop29
280
     1
102
RTVSPost2010PropOp29
 70
     1
102
RTVSPost2010Prop30
280
     1
102
RTVSPost2010PropOp30
 70
     1
102
RTVSPost2010Prop31
280
     0
102
RTVSPost2010PropOp31
 70
     1
102
RTVSPost2010Prop32
280
     0
102
RTVSPost2010PropOp32
 70
     1
102
RTVSPost2010Prop33
280
     0
102
RTVSPost2010PropOp33
 70
     1
102
RTVSPost2010Prop34
280
     0
102
RTVSPost2010PropOp34
 70
     1
102
RTVSPost2010Prop35
280
     0
102
RTVSPost2010PropOp35
 70
     1
102
RTVSPost2010Prop36
280
     0
102
RTVSPost2010PropOp36
 70
     1
102
RTVSPost2010Prop37
 90
       50
102
RTVSPost2010PropOp37
 70
     1
102
RTVSPost2010Prop38
140
0.0
102
RTVSPost2010PropOp38
 70
     1
102
RTVSPost2010Prop39
140
1.0
102
RTVSPost2010PropOp39
 70
     1
102
RTVSPost2010Prop40
 90
        0
102
RTVSPost2010PropOp40
 70
     1
102
RTVSPost2010Prop41ColorIndex
 90
       18
102
RTVSPost2010Prop41ColorRGB
 90
        0
102
RTVSPost2010PropOp41
 70
     1
102
RTVSPost2010Prop42
 90
       50
102
RTVSPost2010PropOp42
 70
     1
102
RTVSPost2010Prop43
 90
        3
102
RTVSPost2010PropOp43
 70
     1
102
RTVSPost2010Prop44ColorIndex
 90
        5
102
RTVSPost2010Prop44ColorRGB
 90
      255
102
RTVSPost2010PropOp44
 70
     1
102
RTVSPost2010Prop45
280
     0
102
RTVSPost2010PropOp45
 70
     1
102
RTVSPost2010Prop46
 90
       50
102
RTVSPost2010PropOp46
 70
     1
102
RTVSPost2010Prop47
 90
       50
102
RTVSPost2010PropOp47
 70
     1
102
RTVSPost2010Prop48
 90
       50
102
RTVSPost2010PropOp48
 70
     1
102
RTVSPost2010Prop49
280
     0
102
RTVSPost2010PropOp49
 70
     1
102
RTVSPost2010Prop50
 90
       50
102
RTVSPost2010PropOp50
 70
     1
102
RTVSPost2010Prop51ColorIndex
 90
      256
102
RTVSPost2010Prop51ColorRGB
 90
-16777216
102
RTVSPost2010PropOp51
 70
     0
102
RTVSPost2010Prop52
140
1.0
102
RTVSPost2010PropOp52
 70
     0
102
RTVSPost2010Prop53
 90
        2
102
RTVSPost2010PropOp53
 70
     1
102
RTVSPost2010Prop54
  1
strokes_ogs.tif
102
RTVSPost2010PropOp54
 70
     1
102
RTVSPost2010Prop55
280
     0
102
RTVSPost2010PropOp55
 70
     1
102
RTVSPost2010Prop56
140
1.0
102
RTVSPost2010PropOp56
 70
     1
102
RTVSPost2010Prop57
140
1.0
102
RTVSPost2010PropOp57
 70
     1
  0
XRECORD
  5
164
102
{ACAD_REACTORS
330
163
102
}
330
163
100
AcDbXrecord
280
     1
102
RTVSPropertyOp0
 70
     1
102
RTVSPropertyOp1
 70
     1
102
RTVSPropertyOp2
 70
     1
102
RTVSPropertyOp3
 70
     1
102
RTVSPropertyOp4
 70
     1
102
RTVSPropertyOp5
 70
     1
102
RTVSPropertyOp6
 70
     1
102
RTVSPropertyOp7
 70
     1
102
RTVSPropertyOp8
 70
     1
102
RTVSPropertyOp9
 70
     1
102
RTVSPropertyOp10
 70
     1
102
RTVSPropertyOp11
 70
     1
102
RTVSPropertyOp12
 70
     1
102
RTVSPropertyOp13
 70
     1
102
RTVSPropertyOp14
 70
     1
102
RTVSPropertyOp15
 70
     1
102
RTVSPropertyOp16
 70
     1
102
RTVSPropertyOp17
 70
     1
102
RTVSPropertyOp18
 70
     1
102
RTVSPropertyOp19
 70
     1
102
RTVSPropertyOp20
 70
     1
102
RTVSPropertyOp21
 70
     1
102
RTVSPropertyOp22
 70
     1
102
RTVSPropertyOp23
 70
     1
102
RTVSPropertyOp24
 70
     1
102
RTVSPropertyOp25
 70
     1
102
RTVSPropertyOp26
 70
     1
102
RTVSPropertyOp27
 70
     1
102
RTVSPropertyOp28
 70
     1
102
RTVSPropertyOp29
 70
     1
102
RTVSPropertyOp30
 70
     1
102
RTVSPropertyOp31
 70
     1
102
RTVSPropertyOp32
 70
     1
102
RTVSPropertyOp33
 70
     1
102
RTVSPropertyOp34
 70
     1
102
RTVSPropertyOp35
 70
     1
102
RTVSPropertyOp36
 70
     1
102
RTVSPropertyOp37
 70
     1
102
RTVSPropertyOp38
 70
     1
102
RTVSPropertyOp39
 70
     1
102
RTVSPropertyOp40
 70
     1
102
RTVSPropertyOp41
 70
     1
102
RTVSPropertyOp42
 70
     1
102
RTVSPropertyOp43
 70
     1
102
RTVSPropertyOp44
 70
     1
102
RTVSPropertyOp45
 70
     1
102
RTVSPropertyOp46
 70
     1
102
RTVSPropertyOp47
 70
     1
102
RTVSPropertyOp48
 70
     1
102
RTVSPropertyOp49
 70
     1
102
RTVSPropertyOp50
 70
     1
102
RTVSPropertyOp51
 70
     0
102
RTVSPropertyOp52
 70
     0
102
RTVSPropertyOp53
 70
     1
102
RTVSPropertyOp54
 70
     1
102
RTVSPropertyOp55
 70
     1
102
RTVSPropertyOp56
 70
     1
102
RTVSPropertyOp57
 70
     1
102
RTVSPost2010Prop28
280
     0
102
RTVSPost2010PropOp28
 70
     1
102
RTVSPost2010Prop29
280
     1
102
RTVSPost2010PropOp29
 70
     1
102
RTVSPost2010Prop30
280
     1
102
RTVSPost2010PropOp30
 70
     1
102
RTVSPost2010Prop31
280
     0
102
RTVSPost2010PropOp31
 70
     1
102
RTVSPost2010Prop32
280
     0
102
RTVSPost2010PropOp32
 70
     1
102
RTVSPost2010Prop33
280
     0
102
RTVSPost2010PropOp33
 70
     1
102
RTVSPost2010Prop34
280
     0
102
RTVSPost2010PropOp34
 70
     1
102
RTVSPost2010Prop35
280
     0
102
RTVSPost2010PropOp35
 70
     1
102
RTVSPost2010Prop36
280
     0
102
RTVSPost2010PropOp36
 70
     1
102
RTVSPost2010Prop37
 90
       50
102
RTVSPost2010PropOp37
 70
     1
102
RTVSPost2010Prop38
140
0.0
102
RTVSPost2010PropOp38
 70
     1
102
RTVSPost2010Prop39
140
1.0
102
RTVSPost2010PropOp39
 70
     1
102
RTVSPost2010Prop40
 90
        0
102
RTVSPost2010PropOp40
 70
     1
102
RTVSPost2010Prop41ColorIndex
 90
       18
102
RTVSPost2010Prop41ColorRGB
 90
        0
102
RTVSPost2010PropOp41
 70
     1
102
RTVSPost2010Prop42
 90
       50
102
RTVSPost2010PropOp42
 70
     1
102
RTVSPost2010Prop43
 90
        3
102
RTVSPost2010PropOp43
 70
     1
102
RTVSPost2010Prop44ColorIndex
 90
        5
102
RTVSPost2010Prop44ColorRGB
 90
      255
102
RTVSPost2010PropOp44
 70
     1
102
RTVSPost2010Prop45
280
     0
102
RTVSPost2010PropOp45
 70
     1
102
RTVSPost2010Prop46
 90
       50
102
RTVSPost2010PropOp46
 70
     1
102
RTVSPost2010Prop47
 90
       50
102
RTVSPost2010PropOp47
 70
     1
102
RTVSPost2010Prop48
 90
       50
102
RTVSPost2010PropOp48
 70
     1
102
RTVSPost2010Prop49
280
     0
102
RTVSPost2010PropOp49
 70
     1
102
RTVSPost2010Prop50
 90
       50
102
RTVSPost2010PropOp50
 70
     1
102
RTVSPost2010Prop51ColorIndex
 90
      256
102
RTVSPost2010Prop51ColorRGB
 90
-16777216
102
RTVSPost2010PropOp51
 70
     0
102
RTVSPost2010Prop52
140
1.0
102
RTVSPost2010PropOp52
 70
     0
102
RTVSPost2010Prop53
 90
        2
102
RTVSPost2010PropOp53
 70
     1
102
RTVSPost2010Prop54
  1
strokes_ogs.tif
102
RTVSPost2010PropOp54
 70
     1
102
RTVSPost2010Prop55
280
     0
102
RTVSPost2010PropOp55
 70
     1
102
RTVSPost2010Prop56
140
1.0
102
RTVSPost2010PropOp56
 70
     1
102
RTVSPost2010Prop57
140
1.0
102
RTVSPost2010PropOp57
 70
     1
  0
XRECORD
  5
15E
102
{ACAD_REACTORS
330
15D
102
}
330
15D
100
AcDbXrecord
280
     1
102
RTVSPropertyOp0
 70
     1
102
RTVSPropertyOp1
 70
     1
102
RTVSPropertyOp2
 70
     1
102
RTVSPropertyOp3
 70
     1
102
RTVSPropertyOp4
 70
     1
102
RTVSPropertyOp5
 70
     1
102
RTVSPropertyOp6
 70
     1
102
RTVSPropertyOp7
 70
     1
102
RTVSPropertyOp8
 70
     1
102
RTVSPropertyOp9
 70
     1
102
RTVSPropertyOp10
 70
     1
102
RTVSPropertyOp11
 70
     1
102
RTVSPropertyOp12
 70
     1
102
RTVSPropertyOp13
 70
     1
102
RTVSPropertyOp14
 70
     1
102
RTVSPropertyOp15
 70
     1
102
RTVSPropertyOp16
 70
     1
102
RTVSPropertyOp17
 70
     1
102
RTVSPropertyOp18
 70
     1
102
RTVSPropertyOp19
 70
     1
102
RTVSPropertyOp20
 70
     1
102
RTVSPropertyOp21
 70
     1
102
RTVSPropertyOp22
 70
     1
102
RTVSPropertyOp23
 70
     1
102
RTVSPropertyOp24
 70
     1
102
RTVSPropertyOp25
 70
     1
102
RTVSPropertyOp26
 70
     1
102
RTVSPropertyOp27
 70
     1
102
RTVSPropertyOp28
 70
     1
102
RTVSPropertyOp29
 70
     1
102
RTVSPropertyOp30
 70
     1
102
RTVSPropertyOp31
 70
     1
102
RTVSPropertyOp32
 70
     1
102
RTVSPropertyOp33
 70
     1
102
RTVSPropertyOp34
 70
     1
102
RTVSPropertyOp35
 70
     1
102
RTVSPropertyOp36
 70
     1
102
RTVSPropertyOp37
 70
     1
102
RTVSPropertyOp38
 70
     1
102
RTVSPropertyOp39
 70
     1
102
RTVSPropertyOp40
 70
     1
102
RTVSPropertyOp41
 70
     1
102
RTVSPropertyOp42
 70
     1
102
RTVSPropertyOp43
 70
     1
102
RTVSPropertyOp44
 70
     1
102
RTVSPropertyOp45
 70
     1
102
RTVSPropertyOp46
 70
     1
102
RTVSPropertyOp47
 70
     1
102
RTVSPropertyOp48
 70
     1
102
RTVSPropertyOp49
 70
     1
102
RTVSPropertyOp50
 70
     1
102
RTVSPropertyOp51
 70
     0
102
RTVSPropertyOp52
 70
     0
102
RTVSPropertyOp53
 70
     1
102
RTVSPropertyOp54
 70
     1
102
RTVSPropertyOp55
 70
     1
102
RTVSPropertyOp56
 70
     1
102
RTVSPropertyOp57
 70
     1
102
RTVSPost2010Prop28
280
     0
102
RTVSPost2010PropOp28
 70
     1
102
RTVSPost2010Prop29
280
     1
102
RTVSPost2010PropOp29
 70
     1
102
RTVSPost2010Prop30
280
     1
102
RTVSPost2010PropOp30
 70
     1
102
RTVSPost2010Prop31
280
     0
102
RTVSPost2010PropOp31
 70
     1
102
RTVSPost2010Prop32
280
     0
102
RTVSPost2010PropOp32
 70
     1
102
RTVSPost2010Prop33
280
     0
102
RTVSPost2010PropOp33
 70
     1
102
RTVSPost2010Prop34
280
     0
102
RTVSPost2010PropOp34
 70
     1
102
RTVSPost2010Prop35
280
     0
102
RTVSPost2010PropOp35
 70
     1
102
RTVSPost2010Prop36
280
     0
102
RTVSPost2010PropOp36
 70
     1
102
RTVSPost2010Prop37
 90
       50
102
RTVSPost2010PropOp37
 70
     1
102
RTVSPost2010Prop38
140
0.0
102
RTVSPost2010PropOp38
 70
     1
102
RTVSPost2010Prop39
140
1.0
102
RTVSPost2010PropOp39
 70
     1
102
RTVSPost2010Prop40
 90
        0
102
RTVSPost2010PropOp40
 70
     1
102
RTVSPost2010Prop41ColorIndex
 90
       18
102
RTVSPost2010Prop41ColorRGB
 90
        0
102
RTVSPost2010PropOp41
 70
     1
102
RTVSPost2010Prop42
 90
       50
102
RTVSPost2010PropOp42
 70
     1
102
RTVSPost2010Prop43
 90
        3
102
RTVSPost2010PropOp43
 70
     1
102
RTVSPost2010Prop44ColorIndex
 90
        5
102
RTVSPost2010Prop44ColorRGB
 90
      255
102
RTVSPost2010PropOp44
 70
     1
102
RTVSPost2010Prop45
280
     0
102
RTVSPost2010PropOp45
 70
     1
102
RTVSPost2010Prop46
 90
       50
102
RTVSPost2010PropOp46
 70
     1
102
RTVSPost2010Prop47
 90
       50
102
RTVSPost2010PropOp47
 70
     1
102
RTVSPost2010Prop48
 90
       50
102
RTVSPost2010PropOp48
 70
     1
102
RTVSPost2010Prop49
280
     0
102
RTVSPost2010PropOp49
 70
     1
102
RTVSPost2010Prop50
 90
       50
102
RTVSPost2010PropOp50
 70
     1
102
RTVSPost2010Prop51ColorIndex
 90
      256
102
RTVSPost2010Prop51ColorRGB
 90
-16777216
102
RTVSPost2010PropOp51
 70
     0
102
RTVSPost2010Prop52
140
1.0
102
RTVSPost2010PropOp52
 70
     0
102
RTVSPost2010Prop53
 90
        2
102
RTVSPost2010PropOp53
 70
     1
102
RTVSPost2010Prop54
  1
strokes_ogs.tif
102
RTVSPost2010PropOp54
 70
     1
102
RTVSPost2010Prop55
280
     0
102
RTVSPost2010PropOp55
 70
     1
102
RTVSPost2010Prop56
140
1.0
102
RTVSPost2010PropOp56
 70
     1
102
RTVSPost2010Prop57
140
1.0
102
RTVSPost2010PropOp57
 70
     1
  0
XRECORD
  5
160
102
{ACAD_REACTORS
330
15F
102
}
330
15F
100
AcDbXrecord
280
     1
102
RTVSPropertyOp0
 70
     1
102
RTVSPropertyOp1
 70
     1
102
RTVSPropertyOp2
 70
     1
102
RTVSPropertyOp3
 70
     1
102
RTVSPropertyOp4
 70
     1
102
RTVSPropertyOp5
 70
     1
102
RTVSPropertyOp6
 70
     1
102
RTVSPropertyOp7
 70
     1
102
RTVSPropertyOp8
 70
     1
102
RTVSPropertyOp9
 70
     1
102
RTVSPropertyOp10
 70
     1
102
RTVSPropertyOp11
 70
     1
102
RTVSPropertyOp12
 70
     1
102
RTVSPropertyOp13
 70
     1
102
RTVSPropertyOp14
 70
     1
102
RTVSPropertyOp15
 70
     1
102
RTVSPropertyOp16
 70
     1
102
RTVSPropertyOp17
 70
     1
102
RTVSPropertyOp18
 70
     1
102
RTVSPropertyOp19
 70
     1
102
RTVSPropertyOp20
 70
     1
102
RTVSPropertyOp21
 70
     1
102
RTVSPropertyOp22
 70
     1
102
RTVSPropertyOp23
 70
     1
102
RTVSPropertyOp24
 70
     1
102
RTVSPropertyOp25
 70
     1
102
RTVSPropertyOp26
 70
     1
102
RTVSPropertyOp27
 70
     1
102
RTVSPropertyOp28
 70
     1
102
RTVSPropertyOp29
 70
     1
102
RTVSPropertyOp30
 70
     1
102
RTVSPropertyOp31
 70
     1
102
RTVSPropertyOp32
 70
     1
102
RTVSPropertyOp33
 70
     1
102
RTVSPropertyOp34
 70
     1
102
RTVSPropertyOp35
 70
     1
102
RTVSPropertyOp36
 70
     1
102
RTVSPropertyOp37
 70
     1
102
RTVSPropertyOp38
 70
     1
102
RTVSPropertyOp39
 70
     1
102
RTVSPropertyOp40
 70
     1
102
RTVSPropertyOp41
 70
     1
102
RTVSPropertyOp42
 70
     1
102
RTVSPropertyOp43
 70
     1
102
RTVSPropertyOp44
 70
     1
102
RTVSPropertyOp45
 70
     1
102
RTVSPropertyOp46
 70
     1
102
RTVSPropertyOp47
 70
     1
102
RTVSPropertyOp48
 70
     1
102
RTVSPropertyOp49
 70
     1
102
RTVSPropertyOp50
 70
     1
102
RTVSPropertyOp51
 70
     0
102
RTVSPropertyOp52
 70
     0
102
RTVSPropertyOp53
 70
     1
102
RTVSPropertyOp54
 70
     1
102
RTVSPropertyOp55
 70
     1
102
RTVSPropertyOp56
 70
     1
102
RTVSPropertyOp57
 70
     1
102
RTVSPost2010Prop28
280
     0
102
RTVSPost2010PropOp28
 70
     1
102
RTVSPost2010Prop29
280
     1
102
RTVSPost2010PropOp29
 70
     1
102
RTVSPost2010Prop30
280
     1
102
RTVSPost2010PropOp30
 70
     1
102
RTVSPost2010Prop31
280
     0
102
RTVSPost2010PropOp31
 70
     1
102
RTVSPost2010Prop32
280
     0
102
RTVSPost2010PropOp32
 70
     1
102
RTVSPost2010Prop33
280
     0
102
RTVSPost2010PropOp33
 70
     1
102
RTVSPost2010Prop34
280
     0
102
RTVSPost2010PropOp34
 70
     1
102
RTVSPost2010Prop35
280
     0
102
RTVSPost2010PropOp35
 70
     1
102
RTVSPost2010Prop36
280
     0
102
RTVSPost2010PropOp36
 70
     1
102
RTVSPost2010Prop37
 90
       50
102
RTVSPost2010PropOp37
 70
     1
102
RTVSPost2010Prop38
140
0.0
102
RTVSPost2010PropOp38
 70
     1
102
RTVSPost2010Prop39
140
1.0
102
RTVSPost2010PropOp39
 70
     1
102
RTVSPost2010Prop40
 90
        0
102
RTVSPost2010PropOp40
 70
     1
102
RTVSPost2010Prop41ColorIndex
 90
       18
102
RTVSPost2010Prop41ColorRGB
 90
        0
102
RTVSPost2010PropOp41
 70
     1
102
RTVSPost2010Prop42
 90
       50
102
RTVSPost2010PropOp42
 70
     1
102
RTVSPost2010Prop43
 90
        3
102
RTVSPost2010PropOp43
 70
     1
102
RTVSPost2010Prop44ColorIndex
 90
        5
102
RTVSPost2010Prop44ColorRGB
 90
      255
102
RTVSPost2010PropOp44
 70
     1
102
RTVSPost2010Prop45
280
     0
102
RTVSPost2010PropOp45
 70
     1
102
RTVSPost2010Prop46
 90
       50
102
RTVSPost2010PropOp46
 70
     1
102
RTVSPost2010Prop47
 90
       50
102
RTVSPost2010PropOp47
 70
     1
102
RTVSPost2010Prop48
 90
       50
102
RTVSPost2010PropOp48
 70
     1
102
RTVSPost2010Prop49
280
     0
102
RTVSPost2010PropOp49
 70
     1
102
RTVSPost2010Prop50
 90
       50
102
RTVSPost2010PropOp50
 70
     1
102
RTVSPost2010Prop51ColorIndex
 90
      256
102
RTVSPost2010Prop51ColorRGB
 90
-16777216
102
RTVSPost2010PropOp51
 70
     0
102
RTVSPost2010Prop52
140
1.0
102
RTVSPost2010PropOp52
 70
     0
102
RTVSPost2010Prop53
 90
        2
102
RTVSPost2010PropOp53
 70
     1
102
RTVSPost2010Prop54
  1
strokes_ogs.tif
102
RTVSPost2010PropOp54
 70
     1
102
RTVSPost2010Prop55
280
     0
102
RTVSPost2010PropOp55
 70
     1
102
RTVSPost2010Prop56
140
1.0
102
RTVSPost2010PropOp56
 70
     1
102
RTVSPost2010Prop57
140
1.0
102
RTVSPost2010PropOp57
 70
     1
  0
XRECORD
  5
150
102
{ACAD_REACTORS
330
14F
102
}
330
14F
100
AcDbXrecord
280
     1
102
RTVSPropertyOp0
 70
     1
102
RTVSPropertyOp1
 70
     1
102
RTVSPropertyOp2
 70
     1
102
RTVSPropertyOp3
 70
     1
102
RTVSPropertyOp4
 70
     1
102
RTVSPropertyOp5
 70
     1
102
RTVSPropertyOp6
 70
     1
102
RTVSPropertyOp7
 70
     1
102
RTVSPropertyOp8
 70
     1
102
RTVSPropertyOp9
 70
     1
102
RTVSPropertyOp10
 70
     1
102
RTVSPropertyOp11
 70
     1
102
RTVSPropertyOp12
 70
     1
102
RTVSPropertyOp13
 70
     1
102
RTVSPropertyOp14
 70
     1
102
RTVSPropertyOp15
 70
     1
102
RTVSPropertyOp16
 70
     1
102
RTVSPropertyOp17
 70
     1
102
RTVSPropertyOp18
 70
     1
102
RTVSPropertyOp19
 70
     1
102
RTVSPropertyOp20
 70
     1
102
RTVSPropertyOp21
 70
     1
102
RTVSPropertyOp22
 70
     1
102
RTVSPropertyOp23
 70
     1
102
RTVSPropertyOp24
 70
     1
102
RTVSPropertyOp25
 70
     1
102
RTVSPropertyOp26
 70
     1
102
RTVSPropertyOp27
 70
     1
102
RTVSPropertyOp28
 70
     1
102
RTVSPropertyOp29
 70
     1
102
RTVSPropertyOp30
 70
     1
102
RTVSPropertyOp31
 70
     1
102
RTVSPropertyOp32
 70
     1
102
RTVSPropertyOp33
 70
     1
102
RTVSPropertyOp34
 70
     1
102
RTVSPropertyOp35
 70
     1
102
RTVSPropertyOp36
 70
     1
102
RTVSPropertyOp37
 70
     1
102
RTVSPropertyOp38
 70
     1
102
RTVSPropertyOp39
 70
     1
102
RTVSPropertyOp40
 70
     1
102
RTVSPropertyOp41
 70
     1
102
RTVSPropertyOp42
 70
     1
102
RTVSPropertyOp43
 70
     1
102
RTVSPropertyOp44
 70
     1
102
RTVSPropertyOp45
 70
     1
102
RTVSPropertyOp46
 70
     1
102
RTVSPropertyOp47
 70
     1
102
RTVSPropertyOp48
 70
     1
102
RTVSPropertyOp49
 70
     1
102
RTVSPropertyOp50
 70
     1
102
RTVSPropertyOp51
 70
     0
102
RTVSPropertyOp52
 70
     0
102
RTVSPropertyOp53
 70
     1
102
RTVSPropertyOp54
 70
     1
102
RTVSPropertyOp55
 70
     1
102
RTVSPropertyOp56
 70
     1
102
RTVSPropertyOp57
 70
     1
102
RTVSPost2010Prop28
280
     0
102
RTVSPost2010PropOp28
 70
     1
102
RTVSPost2010Prop29
280
     1
102
RTVSPost2010PropOp29
 70
     1
102
RTVSPost2010Prop30
280
     1
102
RTVSPost2010PropOp30
 70
     1
102
RTVSPost2010Prop31
280
     0
102
RTVSPost2010PropOp31
 70
     1
102
RTVSPost2010Prop32
280
     0
102
RTVSPost2010PropOp32
 70
     1
102
RTVSPost2010Prop33
280
     0
102
RTVSPost2010PropOp33
 70
     1
102
RTVSPost2010Prop34
280
     0
102
RTVSPost2010PropOp34
 70
     1
102
RTVSPost2010Prop35
280
     0
102
RTVSPost2010PropOp35
 70
     1
102
RTVSPost2010Prop36
280
     0
102
RTVSPost2010PropOp36
 70
     1
102
RTVSPost2010Prop37
 90
       50
102
RTVSPost2010PropOp37
 70
     1
102
RTVSPost2010Prop38
140
0.0
102
RTVSPost2010PropOp38
 70
     1
102
RTVSPost2010Prop39
140
1.0
102
RTVSPost2010PropOp39
 70
     1
102
RTVSPost2010Prop40
 90
        0
102
RTVSPost2010PropOp40
 70
     1
102
RTVSPost2010Prop41ColorIndex
 90
       18
102
RTVSPost2010Prop41ColorRGB
 90
        0
102
RTVSPost2010PropOp41
 70
     1
102
RTVSPost2010Prop42
 90
       50
102
RTVSPost2010PropOp42
 70
     1
102
RTVSPost2010Prop43
 90
        3
102
RTVSPost2010PropOp43
 70
     1
102
RTVSPost2010Prop44ColorIndex
 90
        5
102
RTVSPost2010Prop44ColorRGB
 90
      255
102
RTVSPost2010PropOp44
 70
     1
102
RTVSPost2010Prop45
280
     0
102
RTVSPost2010PropOp45
 70
     1
102
RTVSPost2010Prop46
 90
       50
102
RTVSPost2010PropOp46
 70
     1
102
RTVSPost2010Prop47
 90
       50
102
RTVSPost2010PropOp47
 70
     1
102
RTVSPost2010Prop48
 90
       50
102
RTVSPost2010PropOp48
 70
     1
102
RTVSPost2010Prop49
280
     0
102
RTVSPost2010PropOp49
 70
     1
102
RTVSPost2010Prop50
 90
       50
102
RTVSPost2010PropOp50
 70
     1
102
RTVSPost2010Prop51ColorIndex
 90
      256
102
RTVSPost2010Prop51ColorRGB
 90
-16777216
102
RTVSPost2010PropOp51
 70
     0
102
RTVSPost2010Prop52
140
1.0
102
RTVSPost2010PropOp52
 70
     0
102
RTVSPost2010Prop53
 90
        2
102
RTVSPost2010PropOp53
 70
     1
102
RTVSPost2010Prop54
  1
strokes_ogs.tif
102
RTVSPost2010PropOp54
 70
     1
102
RTVSPost2010Prop55
280
     0
102
RTVSPost2010PropOp55
 70
     1
102
RTVSPost2010Prop56
140
1.0
102
RTVSPost2010PropOp56
 70
     1
102
RTVSPost2010Prop57
140
1.0
102
RTVSPost2010PropOp57
 70
     1
  0
XRECORD
  5
142
102
{ACAD_REACTORS
330
141
102
}
330
141
100
AcDbXrecord
280
     1
102
RTVSPropertyOp0
 70
     1
102
RTVSPropertyOp1
 70
     1
102
RTVSPropertyOp2
 70
     1
102
RTVSPropertyOp3
 70
     1
102
RTVSPropertyOp4
 70
     1
102
RTVSPropertyOp5
 70
     1
102
RTVSPropertyOp6
 70
     1
102
RTVSPropertyOp7
 70
     1
102
RTVSPropertyOp8
 70
     1
102
RTVSPropertyOp9
 70
     1
102
RTVSPropertyOp10
 70
     1
102
RTVSPropertyOp11
 70
     1
102
RTVSPropertyOp12
 70
     1
102
RTVSPropertyOp13
 70
     1
102
RTVSPropertyOp14
 70
     1
102
RTVSPropertyOp15
 70
     1
102
RTVSPropertyOp16
 70
     1
102
RTVSPropertyOp17
 70
     1
102
RTVSPropertyOp18
 70
     1
102
RTVSPropertyOp19
 70
     1
102
RTVSPropertyOp20
 70
     1
102
RTVSPropertyOp21
 70
     1
102
RTVSPropertyOp22
 70
     1
102
RTVSPropertyOp23
 70
     1
102
RTVSPropertyOp24
 70
     1
102
RTVSPropertyOp25
 70
     1
102
RTVSPropertyOp26
 70
     1
102
RTVSPropertyOp27
 70
     1
102
RTVSPropertyOp28
 70
     1
102
RTVSPropertyOp29
 70
     1
102
RTVSPropertyOp30
 70
     1
102
RTVSPropertyOp31
 70
     1
102
RTVSPropertyOp32
 70
     1
102
RTVSPropertyOp33
 70
     1
102
RTVSPropertyOp34
 70
     1
102
RTVSPropertyOp35
 70
     1
102
RTVSPropertyOp36
 70
     1
102
RTVSPropertyOp37
 70
     1
102
RTVSPropertyOp38
 70
     1
102
RTVSPropertyOp39
 70
     1
102
RTVSPropertyOp40
 70
     1
102
RTVSPropertyOp41
 70
     1
102
RTVSPropertyOp42
 70
     1
102
RTVSPropertyOp43
 70
     1
102
RTVSPropertyOp44
 70
     1
102
RTVSPropertyOp45
 70
     1
102
RTVSPropertyOp46
 70
     1
102
RTVSPropertyOp47
 70
     1
102
RTVSPropertyOp48
 70
     1
102
RTVSPropertyOp49
 70
     1
102
RTVSPropertyOp50
 70
     1
102
RTVSPropertyOp51
 70
     0
102
RTVSPropertyOp52
 70
     0
102
RTVSPropertyOp53
 70
     1
102
RTVSPropertyOp54
 70
     1
102
RTVSPropertyOp55
 70
     1
102
RTVSPropertyOp56
 70
     1
102
RTVSPropertyOp57
 70
     1
102
RTVSPost2010Prop28
280
     0
102
RTVSPost2010PropOp28
 70
     1
102
RTVSPost2010Prop29
280
     1
102
RTVSPost2010PropOp29
 70
     1
102
RTVSPost2010Prop30
280
     1
102
RTVSPost2010PropOp30
 70
     1
102
RTVSPost2010Prop31
280
     0
102
RTVSPost2010PropOp31
 70
     1
102
RTVSPost2010Prop32
280
     0
102
RTVSPost2010PropOp32
 70
     1
102
RTVSPost2010Prop33
280
     0
102
RTVSPost2010PropOp33
 70
     1
102
RTVSPost2010Prop34
280
     0
102
RTVSPost2010PropOp34
 70
     1
102
RTVSPost2010Prop35
280
     0
102
RTVSPost2010PropOp35
 70
     1
102
RTVSPost2010Prop36
280
     0
102
RTVSPost2010PropOp36
 70
     1
102
RTVSPost2010Prop37
 90
       50
102
RTVSPost2010PropOp37
 70
     1
102
RTVSPost2010Prop38
140
0.0
102
RTVSPost2010PropOp38
 70
     1
102
RTVSPost2010Prop39
140
1.0
102
RTVSPost2010PropOp39
 70
     1
102
RTVSPost2010Prop40
 90
        0
102
RTVSPost2010PropOp40
 70
     1
102
RTVSPost2010Prop41ColorIndex
 90
       18
102
RTVSPost2010Prop41ColorRGB
 90
        0
102
RTVSPost2010PropOp41
 70
     1
102
RTVSPost2010Prop42
 90
       50
102
RTVSPost2010PropOp42
 70
     1
102
RTVSPost2010Prop43
 90
        3
102
RTVSPost2010PropOp43
 70
     1
102
RTVSPost2010Prop44ColorIndex
 90
        5
102
RTVSPost2010Prop44ColorRGB
 90
      255
102
RTVSPost2010PropOp44
 70
     1
102
RTVSPost2010Prop45
280
     0
102
RTVSPost2010PropOp45
 70
     1
102
RTVSPost2010Prop46
 90
       50
102
RTVSPost2010PropOp46
 70
     1
102
RTVSPost2010Prop47
 90
       50
102
RTVSPost2010PropOp47
 70
     1
102
RTVSPost2010Prop48
 90
       50
102
RTVSPost2010PropOp48
 70
     1
102
RTVSPost2010Prop49
280
     0
102
RTVSPost2010PropOp49
 70
     1
102
RTVSPost2010Prop50
 90
       50
102
RTVSPost2010PropOp50
 70
     1
102
RTVSPost2010Prop51ColorIndex
 90
      256
102
RTVSPost2010Prop51ColorRGB
 90
-16777216
102
RTVSPost2010PropOp51
 70
     0
102
RTVSPost2010Prop52
140
1.0
102
RTVSPost2010PropOp52
 70
     0
102
RTVSPost2010Prop53
 90
        2
102
RTVSPost2010PropOp53
 70
     1
102
RTVSPost2010Prop54
  1
strokes_ogs.tif
102
RTVSPost2010PropOp54
 70
     1
102
RTVSPost2010Prop55
280
     0
102
RTVSPost2010PropOp55
 70
     1
102
RTVSPost2010Prop56
140
1.0
102
RTVSPost2010PropOp56
 70
     1
102
RTVSPost2010Prop57
140
1.0
102
RTVSPost2010PropOp57
 70
     1
  0
XRECORD
  5
162
102
{ACAD_REACTORS
330
161
102
}
330
161
100
AcDbXrecord
280
     1
102
RTVSPropertyOp0
 70
     1
102
RTVSPropertyOp1
 70
     1
102
RTVSPropertyOp2
 70
     1
102
RTVSPropertyOp3
 70
     1
102
RTVSPropertyOp4
 70
     1
102
RTVSPropertyOp5
 70
     1
102
RTVSPropertyOp6
 70
     1
102
RTVSPropertyOp7
 70
     1
102
RTVSPropertyOp8
 70
     1
102
RTVSPropertyOp9
 70
     1
102
RTVSPropertyOp10
 70
     1
102
RTVSPropertyOp11
 70
     1
102
RTVSPropertyOp12
 70
     1
102
RTVSPropertyOp13
 70
     1
102
RTVSPropertyOp14
 70
     1
102
RTVSPropertyOp15
 70
     1
102
RTVSPropertyOp16
 70
     1
102
RTVSPropertyOp17
 70
     1
102
RTVSPropertyOp18
 70
     1
102
RTVSPropertyOp19
 70
     1
102
RTVSPropertyOp20
 70
     1
102
RTVSPropertyOp21
 70
     1
102
RTVSPropertyOp22
 70
     1
102
RTVSPropertyOp23
 70
     1
102
RTVSPropertyOp24
 70
     1
102
RTVSPropertyOp25
 70
     1
102
RTVSPropertyOp26
 70
     1
102
RTVSPropertyOp27
 70
     1
102
RTVSPropertyOp28
 70
     1
102
RTVSPropertyOp29
 70
     1
102
RTVSPropertyOp30
 70
     1
102
RTVSPropertyOp31
 70
     1
102
RTVSPropertyOp32
 70
     1
102
RTVSPropertyOp33
 70
     1
102
RTVSPropertyOp34
 70
     1
102
RTVSPropertyOp35
 70
     1
102
RTVSPropertyOp36
 70
     1
102
RTVSPropertyOp37
 70
     1
102
RTVSPropertyOp38
 70
     1
102
RTVSPropertyOp39
 70
     1
102
RTVSPropertyOp40
 70
     1
102
RTVSPropertyOp41
 70
     1
102
RTVSPropertyOp42
 70
     1
102
RTVSPropertyOp43
 70
     1
102
RTVSPropertyOp44
 70
     1
102
RTVSPropertyOp45
 70
     1
102
RTVSPropertyOp46
 70
     1
102
RTVSPropertyOp47
 70
     1
102
RTVSPropertyOp48
 70
     1
102
RTVSPropertyOp49
 70
     1
102
RTVSPropertyOp50
 70
     1
102
RTVSPropertyOp51
 70
     0
102
RTVSPropertyOp52
 70
     0
102
RTVSPropertyOp53
 70
     1
102
RTVSPropertyOp54
 70
     1
102
RTVSPropertyOp55
 70
     1
102
RTVSPropertyOp56
 70
     1
102
RTVSPropertyOp57
 70
     1
102
RTVSPost2010Prop28
280
     0
102
RTVSPost2010PropOp28
 70
     1
102
RTVSPost2010Prop29
280
     1
102
RTVSPost2010PropOp29
 70
     1
102
RTVSPost2010Prop30
280
     1
102
RTVSPost2010PropOp30
 70
     1
102
RTVSPost2010Prop31
280
     0
102
RTVSPost2010PropOp31
 70
     1
102
RTVSPost2010Prop32
280
     0
102
RTVSPost2010PropOp32
 70
     1
102
RTVSPost2010Prop33
280
     0
102
RTVSPost2010PropOp33
 70
     1
102
RTVSPost2010Prop34
280
     0
102
RTVSPost2010PropOp34
 70
     1
102
RTVSPost2010Prop35
280
     0
102
RTVSPost2010PropOp35
 70
     1
102
RTVSPost2010Prop36
280
     0
102
RTVSPost2010PropOp36
 70
     1
102
RTVSPost2010Prop37
 90
       50
102
RTVSPost2010PropOp37
 70
     1
102
RTVSPost2010Prop38
140
0.0
102
RTVSPost2010PropOp38
 70
     1
102
RTVSPost2010Prop39
140
1.0
102
RTVSPost2010PropOp39
 70
     1
102
RTVSPost2010Prop40
 90
        0
102
RTVSPost2010PropOp40
 70
     1
102
RTVSPost2010Prop41ColorIndex
 90
       18
102
RTVSPost2010Prop41ColorRGB
 90
        0
102
RTVSPost2010PropOp41
 70
     1
102
RTVSPost2010Prop42
 90
       50
102
RTVSPost2010PropOp42
 70
     1
102
RTVSPost2010Prop43
 90
        3
102
RTVSPost2010PropOp43
 70
     1
102
RTVSPost2010Prop44ColorIndex
 90
        5
102
RTVSPost2010Prop44ColorRGB
 90
      255
102
RTVSPost2010PropOp44
 70
     1
102
RTVSPost2010Prop45
280
     0
102
RTVSPost2010PropOp45
 70
     1
102
RTVSPost2010Prop46
 90
       50
102
RTVSPost2010PropOp46
 70
     1
102
RTVSPost2010Prop47
 90
       50
102
RTVSPost2010PropOp47
 70
     1
102
RTVSPost2010Prop48
 90
       50
102
RTVSPost2010PropOp48
 70
     1
102
RTVSPost2010Prop49
280
     0
102
RTVSPost2010PropOp49
 70
     1
102
RTVSPost2010Prop50
 90
       50
102
RTVSPost2010PropOp50
 70
     1
102
RTVSPost2010Prop51ColorIndex
 90
      256
102
RTVSPost2010Prop51ColorRGB
 90
-16777216
102
RTVSPost2010PropOp51
 70
     0
102
RTVSPost2010Prop52
140
1.0
102
RTVSPost2010PropOp52
 70
     0
102
RTVSPost2010Prop53
 90
        2
102
RTVSPost2010PropOp53
 70
     1
102
RTVSPost2010Prop54
  1
strokes_ogs.tif
102
RTVSPost2010PropOp54
 70
     1
102
RTVSPost2010Prop55
280
     0
102
RTVSPost2010PropOp55
 70
     1
102
RTVSPost2010Prop56
140
1.0
102
RTVSPost2010PropOp56
 70
     1
102
RTVSPost2010Prop57
140
1.0
102
RTVSPost2010PropOp57
 70
     1
  0
ENDSEC
  0
EOF
